  0
SECTION
  2
HEADER
  9
$ACADVER
  1
AC1015
  9
$ACADMAINTVER
 70
     6
  9
$DWGCODEPAGE
  3
ANSI_1252
  9
$INSBASE
 10
0.0
 20
0.0
 30
0.0
  9
$EXTMIN
 10
-2.76408140063167
 20
-2.29330052816531
 30
0.0
  9
$EXTMAX
 10
2.73591859936833
 20
1.95669947183469
 30
0.0
  9
$LIMMIN
 10
0.0
 20
0.0
  9
$LIMMAX
 10
12.0
 20
9.0
  9
$ORTHOMODE
 70
     0
  9
$REGENMODE
 70
     1
  9
$FILLMODE
 70
     1
  9
$QTEXTMODE
 70
     0
  9
$MIRRTEXT
 70
     1
  9
$LTSCALE
 40
1.0
  9
$ATTMODE
 70
     1
  9
$TEXTSIZE
 40
0.2
  9
$TRACEWID
 40
0.05
  9
$TEXTSTYLE
  7
Standard
  9
$CLAYER
  8
0
  9
$CELTYPE
  6
ByLayer
  9
$CECOLOR
 62
   256
  9
$CELTSCALE
 40
1.0
  9
$DISPSILH
 70
     0
  9
$DIMSCALE
 40
1.0
  9
$DIMASZ
 40
0.18
  9
$DIMEXO
 40
0.0625
  9
$DIMDLI
 40
0.38
  9
$DIMRND
 40
0.0
  9
$DIMDLE
 40
0.0
  9
$DIMEXE
 40
0.18
  9
$DIMTP
 40
0.0
  9
$DIMTM
 40
0.0
  9
$DIMTXT
 40
0.18
  9
$DIMCEN
 40
0.09
  9
$DIMTSZ
 40
0.0
  9
$DIMTOL
 70
     0
  9
$DIMLIM
 70
     0
  9
$DIMTIH
 70
     1
  9
$DIMTOH
 70
     1
  9
$DIMSE1
 70
     0
  9
$DIMSE2
 70
     0
  9
$DIMTAD
 70
     0
  9
$DIMZIN
 70
     0
  9
$DIMBLK
  1

  9
$DIMASO
 70
     1
  9
$DIMSHO
 70
     1
  9
$DIMPOST
  1

  9
$DIMAPOST
  1

  9
$DIMALT
 70
     0
  9
$DIMALTD
 70
     2
  9
$DIMALTF
 40
25.4
  9
$DIMLFAC
 40
1.0
  9
$DIMTOFL
 70
     0
  9
$DIMTVP
 40
0.0
  9
$DIMTIX
 70
     0
  9
$DIMSOXD
 70
     0
  9
$DIMSAH
 70
     0
  9
$DIMBLK1
  1

  9
$DIMBLK2
  1

  9
$DIMSTYLE
  2
Standard
  9
$DIMCLRD
 70
     0
  9
$DIMCLRE
 70
     0
  9
$DIMCLRT
 70
     0
  9
$DIMTFAC
 40
1.0
  9
$DIMGAP
 40
0.09
  9
$DIMJUST
 70
     0
  9
$DIMSD1
 70
     0
  9
$DIMSD2
 70
     0
  9
$DIMTOLJ
 70
     1
  9
$DIMTZIN
 70
     0
  9
$DIMALTZ
 70
     0
  9
$DIMALTTZ
 70
     0
  9
$DIMUPT
 70
     0
  9
$DIMDEC
 70
     4
  9
$DIMTDEC
 70
     4
  9
$DIMALTU
 70
     2
  9
$DIMALTTD
 70
     2
  9
$DIMTXSTY
  7
Standard
  9
$DIMAUNIT
 70
     0
  9
$DIMADEC
 70
     0
  9
$DIMALTRND
 40
0.0
  9
$DIMAZIN
 70
     0
  9
$DIMDSEP
 70
    46
  9
$DIMATFIT
 70
     3
  9
$DIMFRAC
 70
     0
  9
$DIMLDRBLK
  1

  9
$DIMLUNIT
 70
     2
  9
$DIMLWD
 70
    -2
  9
$DIMLWE
 70
    -2
  9
$DIMTMOVE
 70
     0
  9
$LUNITS
 70
     2
  9
$LUPREC
 70
     4
  9
$SKETCHINC
 40
0.1
  9
$FILLETRAD
 40
0.5
  9
$AUNITS
 70
     0
  9
$AUPREC
 70
     0
  9
$MENU
  1
.
  9
$ELEVATION
 40
0.0
  9
$PELEVATION
 40
0.0
  9
$THICKNESS
 40
0.0
  9
$LIMCHECK
 70
     0
  9
$CHAMFERA
 40
0.5
  9
$CHAMFERB
 40
0.5
  9
$CHAMFERC
 40
1.0
  9
$CHAMFERD
 40
0.0
  9
$SKPOLY
 70
     0
  9
$TDCREATE
 40
2455317.766725799
  9
$TDUCREATE
 40
2455318.100059132
  9
$TDUPDATE
 40
2455317.808392477
  9
$TDUUPDATE
 40
2455318.100059144
  9
$TDINDWG
 40
0.0000000116
  9
$TDUSRTIMER
 40
0.0000000116
  9
$USRTIMER
 70
     1
  9
$ANGBASE
 50
0.0
  9
$ANGDIR
 70
     0
  9
$PDMODE
 70
     0
  9
$PDSIZE
 40
0.0
  9
$PLINEWID
 40
0.0
  9
$SPLFRAME
 70
     0
  9
$SPLINETYPE
 70
     6
  9
$SPLINESEGS
 70
     8
  9
$HANDSEED
  5
1D0
  9
$SURFTAB1
 70
     6
  9
$SURFTAB2
 70
     6
  9
$SURFTYPE
 70
     6
  9
$SURFU
 70
     6
  9
$SURFV
 70
     6
  9
$UCSBASE
  2

  9
$UCSNAME
  2

  9
$UCSORG
 10
0.0
 20
0.0
 30
0.0
  9
$UCSXDIR
 10
1.0
 20
0.0
 30
0.0
  9
$UCSYDIR
 10
0.0
 20
1.0
 30
0.0
  9
$UCSORTHOREF
  2

  9
$UCSORTHOVIEW
 70
     0
  9
$UCSORGTOP
 10
0.0
 20
0.0
 30
0.0
  9
$UCSORGBOTTOM
 10
0.0
 20
0.0
 30
0.0
  9
$UCSORGLEFT
 10
0.0
 20
0.0
 30
0.0
  9
$UCSORGRIGHT
 10
0.0
 20
0.0
 30
0.0
  9
$UCSORGFRONT
 10
0.0
 20
0.0
 30
0.0
  9
$UCSORGBACK
 10
0.0
 20
0.0
 30
0.0
  9
$PUCSBASE
  2

  9
$PUCSNAME
  2

  9
$PUCSORG
 10
0.0
 20
0.0
 30
0.0
  9
$PUCSXDIR
 10
1.0
 20
0.0
 30
0.0
  9
$PUCSYDIR
 10
0.0
 20
1.0
 30
0.0
  9
$PUCSORTHOREF
  2

  9
$PUCSORTHOVIEW
 70
     0
  9
$PUCSORGTOP
 10
0.0
 20
0.0
 30
0.0
  9
$PUCSORGBOTTOM
 10
0.0
 20
0.0
 30
0.0
  9
$PUCSORGLEFT
 10
0.0
 20
0.0
 30
0.0
  9
$PUCSORGRIGHT
 10
0.0
 20
0.0
 30
0.0
  9
$PUCSORGFRONT
 10
0.0
 20
0.0
 30
0.0
  9
$PUCSORGBACK
 10
0.0
 20
0.0
 30
0.0
  9
$USERI1
 70
     0
  9
$USERI2
 70
     0
  9
$USERI3
 70
     0
  9
$USERI4
 70
     0
  9
$USERI5
 70
     0
  9
$USERR1
 40
13.01
  9
$USERR2
 40
0.0
  9
$USERR3
 40
0.0
  9
$USERR4
 40
0.0
  9
$USERR5
 40
0.0
  9
$WORLDVIEW
 70
     1
  9
$SHADEDGE
 70
     3
  9
$SHADEDIF
 70
    70
  9
$TILEMODE
 70
     1
  9
$MAXACTVP
 70
    64
  9
$PINSBASE
 10
0.0
 20
0.0
 30
0.0
  9
$PLIMCHECK
 70
     0
  9
$PEXTMIN
 10
1.00000000000000E+20
 20
1.00000000000000E+20
 30
1.00000000000000E+20
  9
$PEXTMAX
 10
-1.00000000000000E+20
 20
-1.00000000000000E+20
 30
-1.00000000000000E+20
  9
$PLIMMIN
 10
0.0
 20
0.0
  9
$PLIMMAX
 10
12.0
 20
9.0
  9
$UNITMODE
 70
     0
  9
$VISRETAIN
 70
     1
  9
$PLINEGEN
 70
     0
  9
$PSLTSCALE
 70
     1
  9
$TREEDEPTH
 70
  3020
  9
$CMLSTYLE
  2
Standard
  9
$CMLJUST
 70
     0
  9
$CMLSCALE
 40
1.0
  9
$PROXYGRAPHICS
 70
     1
  9
$MEASUREMENT
 70
     0
  9
$CELWEIGHT
370
    -1
  9
$ENDCAPS
280
     0
  9
$JOINSTYLE
280
     0
  9
$LWDISPLAY
290
     0
  9
$INSUNITS
 70
     1
  9
$HYPERLINKBASE
  1

  9
$STYLESHEET
  1

  9
$XEDIT
290
     1
  9
$CEPSNTYPE
380
     0
  9
$PSTYLEMODE
290
     0
  9
$FINGERPRINTGUID
  2
{FAEB1C30-E019-11D5-929B-00C0DF256EC4}
  9
$VERSIONGUID
  2
{FAEB1C32-E019-11D5-929B-00C0DF256EC4}
  9
$EXTNAMES
290
     1
  9
$PSVPSCALE
 40
0.0
  9
$OLESTARTUP
290
     0
  0
ENDSEC
  0
SECTION
  2
CLASSES
  0
CLASS
  1
ACDBDICTIONARYWDFLT
  2
AcDbDictionaryWithDefault
  3
ObjectDBX Classes
 90
        0
280
     0
281
     0
  0
CLASS
  1
TABLESTYLE
  2
AcDbTableStyle
  3
ObjectDBX Classes
 90
     2047
280
     0
281
     0
  0
CLASS
  1
DICTIONARYVAR
  2
AcDbDictionaryVar
  3
ObjectDBX Classes
 90
        0
280
     0
281
     0
  0
CLASS
  1

  2
exOdDbCircle
  3

 90
        0
280
     0
281
     1
  0
CLASS
  1
ACDBPLACEHOLDER
  2
AcDbPlaceHolder
  3
ObjectDBX Classes
 90
        0
280
     0
281
     0
  0
CLASS
  1
LAYOUT
  2
AcDbLayout
  3
ObjectDBX Classes
 90
        0
280
     0
281
     0
  0
ENDSEC
  0
SECTION
  2
TABLES
  0
TABLE
  2
VPORT
  5
8
330
0
100
AcDbSymbolTable
 70
     2
  0
VPORT
  5
29
330
8
100
AcDbSymbolTableRecord
100
AcDbViewportTableRecord
  2
*Active
 70
     0
 10
0.0
 20
0.0
 11
1.0
 21
1.0
 12
-0.01408140063167
 22
-0.16830052816531
 13
0.0
 23
0.0
 14
0.5
 24
0.5
 15
0.5
 25
0.5
 16
0.0
 26
0.0
 36
1.0
 17
0.0
 27
0.0
 37
0.0
 40
4.675
 41
1.60267857142857
 42
50.0
 43
0.0
 44
0.0
 50
0.0
 51
0.0
 71
     0
 72
   100
 73
     1
 74
     3
 75
     0
 76
     0
 77
     0
 78
     0
281
     0
 65
     1
110
0.0
120
0.0
130
0.0
111
1.0
121
0.0
131
0.0
112
0.0
122
1.0
132
0.0
 79
     0
146
0.0
  0
ENDTAB
  0
TABLE
  2
LTYPE
  5
5
330
0
100
AcDbSymbolTable
 70
     9
  0
LTYPE
  5
14
330
5
100
AcDbSymbolTableRecord
100
AcDbLinetypeTableRecord
  2
ByBlock
 70
     0
  3

 72
    65
 73
     0
 40
0.0
  0
LTYPE
  5
15
330
5
100
AcDbSymbolTableRecord
100
AcDbLinetypeTableRecord
  2
ByLayer
 70
     0
  3

 72
    65
 73
     0
 40
0.0
  0
LTYPE
  5
16
330
5
100
AcDbSymbolTableRecord
100
AcDbLinetypeTableRecord
  2
Continuous
 70
     0
  3
Solid line
 72
    65
 73
     0
 40
0.0
  0
LTYPE
  5
2E
330
5
100
AcDbSymbolTableRecord
100
AcDbLinetypeTableRecord
  2
DASHED
 70
     0
  3
Dashed
 72
    65
 73
     2
 40
15.0
 49
7.0
 74
     0
 49
-8.0
 74
     0
  0
LTYPE
  5
2F
330
5
100
AcDbSymbolTableRecord
100
AcDbLinetypeTableRecord
  2
DOTTED
 70
     0
  3
Dotted
 72
    65
 73
     2
 40
1.0
 49
0.0
 74
     0
 49
-1.0
 74
     0
  0
LTYPE
  5
30
330
5
100
AcDbSymbolTableRecord
100
AcDbLinetypeTableRecord
  2
DOT_CENTER
 70
     0
  3
Dot_Center
 72
    65
 73
     4
 40
14.0
 49
12.0
 74
     0
 49
-1.0
 74
     0
 49
0.0
 74
     0
 49
-1.0
 74
     0
  0
LTYPE
  5
31
330
5
100
AcDbSymbolTableRecord
100
AcDbLinetypeTableRecord
  2
LONG_DASHED
 70
     0
  3
Long_Dashed
 72
    65
 73
     2
 40
15.0
 49
10.0
 74
     0
 49
-5.0
 74
     0
  0
LTYPE
  5
32
330
5
100
AcDbSymbolTableRecord
100
AcDbLinetypeTableRecord
  2
DASH_CENTER
 70
     0
  3
Dash_Center
 72
    65
 73
     4
 40
14.0
 49
11.0
 74
     0
 49
-1.0
 74
     0
 49
1.0
 74
     0
 49
-1.0
 74
     0
  0
LTYPE
  5
33
330
5
100
AcDbSymbolTableRecord
100
AcDbLinetypeTableRecord
  2
PHANTOM
 70
     0
  3
Phantom
 72
    65
 73
     6
 40
13.0
 49
10.0
 74
     0
 49
-1.0
 74
     0
 49
0.0
 74
     0
 49
-1.0
 74
     0
 49
0.0
 74
     0
 49
-1.0
 74
     0
  0
LTYPE
  5
34
330
5
100
AcDbSymbolTableRecord
100
AcDbLinetypeTableRecord
  2
CENTER_DASH_DASH
 70
     0
  3
Center_Dash_Dash
 72
    65
 73
     6
 40
14.0
 49
9.0
 74
     0
 49
-1.0
 74
     0
 49
1.0
 74
     0
 49
-1.0
 74
     0
 49
1.0
 74
     0
 49
-1.0
 74
     0
  0
LTYPE
  5
35
330
5
100
AcDbSymbolTableRecord
100
AcDbLinetypeTableRecord
  2
Center
 70
     0
  3
Center
 72
    65
 73
     4
 40
14.0
 49
8.0
 74
     0
 49
-2.0
 74
     0
 49
2.0
 74
     0
 49
-2.0
 74
     0
  0
ENDTAB
  0
TABLE
  2
LAYER
  5
2
330
0
100
AcDbSymbolTable
 70
     2
  0
LAYER
  5
10
330
2
100
AcDbSymbolTableRecord
100
AcDbLayerTableRecord
  2
0
 70
     0
 62
     7
  6
Continuous
370
    -3
390
F
  0
LAYER
  5
36
330
2
100
AcDbSymbolTableRecord
100
AcDbLayerTableRecord
  2
1
 70
     0
 62
     7
  6
Continuous
370
    -3
390
F
  0
ENDTAB
  0
TABLE
  2
STYLE
  5
3
330
0
100
AcDbSymbolTable
 70
     2
  0
STYLE
  5
11
330
3
100
AcDbSymbolTableRecord
100
AcDbTextStyleTableRecord
  2
Standard
 70
     0
 40
0.0
 41
1.0
 50
0.0
 71
     0
 42
0.2
  3
txt
  4

  0
STYLE
  5
19A
330
3
100
AcDbSymbolTableRecord
100
AcDbTextStyleTableRecord
  2
CONVERTER_1
 70
     0
 40
0.0
 41
0.9
 50
0.0
 71
     0
 42
0.2
  3
txt.shx
  4

  0
ENDTAB
  0
TABLE
  2
VIEW
  5
6
330
0
100
AcDbSymbolTable
 70
     0
  0
ENDTAB
  0
TABLE
  2
UCS
  5
7
330
0
100
AcDbSymbolTable
 70
     0
  0
ENDTAB
  0
TABLE
  2
APPID
  5
9
330
0
100
AcDbSymbolTable
 70
     1
  0
APPID
  5
12
330
9
100
AcDbSymbolTableRecord
100
AcDbRegAppTableRecord
  2
ACAD
 70
     0
  0
ENDTAB
  0
TABLE
  2
DIMSTYLE
  5
A
330
0
100
AcDbSymbolTable
 70
     1
100
AcDbDimStyleTable
  0
DIMSTYLE
105
27
330
A
100
AcDbSymbolTableRecord
100
AcDbDimStyleTableRecord
  2
Standard
 70
     0
340
11
  0
ENDTAB
  0
TABLE
  2
BLOCK_RECORD
  5
1
330
0
100
AcDbSymbolTable
 70
     8
  0
BLOCK_RECORD
  5
1F
330
1
100
AcDbSymbolTableRecord
100
AcDbBlockTableRecord
  2
*Model_Space
340
22
  0
BLOCK_RECORD
  5
1B
330
1
100
AcDbSymbolTableRecord
100
AcDbBlockTableRecord
  2
*Paper_Space
340
1E
  0
BLOCK_RECORD
  5
23
330
1
100
AcDbSymbolTableRecord
100
AcDbBlockTableRecord
  2
*Paper_Space0
340
26
  0
BLOCK_RECORD
  5
37
330
1
100
AcDbSymbolTableRecord
100
AcDbBlockTableRecord
  2
format_A
340
0
102
{BLKREFS
331
4D
102
}
  0
BLOCK_RECORD
  5
3A
330
1
100
AcDbSymbolTableRecord
100
AcDbBlockTableRecord
  2
SILCA_GROMET
340
0
102
{BLKREFS
331
4E
102
}
  0
BLOCK_RECORD
  5
3D
330
1
100
AcDbSymbolTableRecord
100
AcDbBlockTableRecord
  2
SILCA_CAP
340
0
102
{BLKREFS
331
4F
102
}
  0
BLOCK_RECORD
  5
40
330
1
100
AcDbSymbolTableRecord
100
AcDbBlockTableRecord
  2
SILCA_SLEEVE
340
0
102
{BLKREFS
331
50
102
}
  0
BLOCK_RECORD
  5
43
330
1
100
AcDbSymbolTableRecord
100
AcDbBlockTableRecord
  2
SILCA_CHUCK_RND
340
0
102
{BLKREFS
331
51
102
}
  0
BLOCK_RECORD
  5
46
330
1
100
AcDbSymbolTableRecord
100
AcDbBlockTableRecord
  2
O-RING004
340
0
102
{BLKREFS
331
4A
102
}
  0
BLOCK_RECORD
  5
49
330
1
100
AcDbSymbolTableRecord
100
AcDbBlockTableRecord
  2
SILCA_BUTTON
340
0
102
{BLKREFS
331
52
102
}
  0
ENDTAB
  0
ENDSEC
  0
SECTION
  2
BLOCKS
  0
BLOCK
  5
20
330
1F
100
AcDbEntity
  8
0
100
AcDbBlockBegin
  2
*Model_Space
 70
     0
 71
     0
 10
0.0
 20
0.0
 30
0.0
  3
*Model_Space
  1

  0
ENDBLK
  5
21
330
1F
100
AcDbEntity
  8
0
100
AcDbBlockEnd
  0
BLOCK
  5
1C
330
1B
100
AcDbEntity
 67
     1
  8
0
100
AcDbBlockBegin
  2
*Paper_Space
 70
     0
 71
     0
 10
0.0
 20
0.0
 30
0.0
  3
*Paper_Space
  1

  0
ENDBLK
  5
1D
330
1B
100
AcDbEntity
 67
     1
  8
0
100
AcDbBlockEnd
  0
BLOCK
  5
24
330
23
100
AcDbEntity
  8
0
100
AcDbBlockBegin
  2
*Paper_Space0
 70
     0
 71
     0
 10
0.0
 20
0.0
 30
0.0
  3
*Paper_Space0
  1

  0
ENDBLK
  5
25
330
23
100
AcDbEntity
  8
0
100
AcDbBlockEnd
  0
BLOCK
  5
38
330
37
100
AcDbEntity
  8
0
100
AcDbBlockBegin
  2
format_A
 70
     0
 71
     0
 10
0.8506606774304
 20
13.46721327263004
 30
0.0
  3
format_A
  1

  0
LINE
  5
53
330
37
100
AcDbEntity
  8
1
  6
PHANTOM
 62
     4
100
AcDbLine
 10
-5.52816280126334
 20
-4.58660105633062
 30
0.0
 11
5.47183719873666
 21
-4.58660105633062
 31
0.0
  0
LINE
  5
54
330
37
100
AcDbEntity
  8
1
  6
PHANTOM
 62
     4
100
AcDbLine
 10
5.47183719873666
 20
-4.58660105633062
 30
0.0
 11
5.47183719873666
 21
3.91339894366938
 31
0.0
  0
LINE
  5
55
330
37
100
AcDbEntity
  8
1
  6
PHANTOM
 62
     4
100
AcDbLine
 10
5.47183719873666
 20
3.91339894366938
 30
0.0
 11
-5.52816280126334
 21
3.91339894366938
 31
0.0
  0
LINE
  5
56
330
37
100
AcDbEntity
  8
1
  6
PHANTOM
 62
     4
100
AcDbLine
 10
-5.52816280126334
 20
3.91339894366938
 30
0.0
 11
-5.52816280126334
 21
-4.58660105633062
 31
0.0
  0
LINE
  5
57
330
37
100
AcDbEntity
  8
1
  6
PHANTOM
 62
     4
100
AcDbLine
 10
-5.27816280126334
 20
-4.20660105633062
 30
0.0
 11
5.22183719873666
 21
-4.20660105633062
 31
0.0
  0
LINE
  5
58
330
37
100
AcDbEntity
  8
1
  6
PHANTOM
 62
     4
100
AcDbLine
 10
5.22183719873666
 20
-4.20660105633062
 30
0.0
 11
5.22183719873666
 21
3.5333989436694
 31
0.0
  0
LINE
  5
59
330
37
100
AcDbEntity
  8
1
  6
PHANTOM
 62
     4
100
AcDbLine
 10
5.22183719873666
 20
3.5333989436694
 30
0.0
 11
-5.27816280126334
 21
3.5333989436694
 31
0.0
  0
LINE
  5
5A
330
37
100
AcDbEntity
  8
1
  6
PHANTOM
 62
     4
100
AcDbLine
 10
-5.27816280126334
 20
3.5333989436694
 30
0.0
 11
-5.27816280126334
 21
-4.20660105633062
 31
0.0
  0
ENDBLK
  5
39
330
37
100
AcDbEntity
  8
0
100
AcDbBlockEnd
  0
BLOCK
  5
3B
330
3A
100
AcDbEntity
  8
0
100
AcDbBlockBegin
  2
SILCA_GROMET
 70
     0
 71
     0
 10
-1.28723272889328
 20
0.6436570904018
 30
0.0
  3
SILCA_GROMET
  1

  0
LINE
  5
5B
102
{ACAD_REACTORS
330
6D
330
6D
102
}
330
3A
100
AcDbEntity
  8
1
  6
Continuous
 62
     1
100
AcDbLine
 10
-1.1260271959388
 20
0.409
 30
0.0
 11
-0.9730271959388
 21
0.409
 31
0.0
  0
LINE
  5
5C
102
{ACAD_REACTORS
330
6D
330
6D
102
}
330
3A
100
AcDbEntity
  8
1
  6
Continuous
 62
     1
100
AcDbLine
 10
-1.1260271959388
 20
0.3035
 30
0.0
 11
-1.1260271959388
 21
0.409
 31
0.0
  0
LINE
  5
5D
102
{ACAD_REACTORS
330
6E
330
6E
102
}
330
3A
100
AcDbEntity
  8
1
  6
Continuous
 62
     1
100
AcDbLine
 10
-0.9730271959388
 20
-0.409
 30
0.0
 11
-1.1260271959388
 21
-0.409
 31
0.0
  0
LINE
  5
5E
102
{ACAD_REACTORS
330
6E
330
6E
102
}
330
3A
100
AcDbEntity
  8
1
  6
Continuous
 62
     1
100
AcDbLine
 10
-0.9730271959388
 20
-0.124
 30
0.0
 11
-0.9730271959388
 21
-0.409
 31
0.0
  0
LINE
  5
5F
102
{ACAD_REACTORS
330
6D
330
6D
102
}
330
3A
100
AcDbEntity
  8
1
  6
Continuous
 62
     1
100
AcDbLine
 10
-1.1880271959388
 20
0.3035
 30
0.0
 11
-1.1260271959388
 21
0.3035
 31
0.0
  0
LINE
  5
60
102
{ACAD_REACTORS
330
6D
330
6D
102
}
330
3A
100
AcDbEntity
  8
1
  6
Continuous
 62
     1
100
AcDbLine
 10
-1.1880271959388
 20
0.204
 30
0.0
 11
-1.1880271959388
 21
0.3035
 31
0.0
  0
LINE
  5
61
102
{ACAD_REACTORS
330
6E
330
6E
102
}
330
3A
100
AcDbEntity
  8
1
  6
Continuous
 62
     1
100
AcDbLine
 10
-1.1260271959388
 20
-0.3035
 30
0.0
 11
-1.1880271959388
 21
-0.3035
 31
0.0
  0
LINE
  5
62
102
{ACAD_REACTORS
330
6E
330
6E
102
}
330
3A
100
AcDbEntity
  8
1
  6
Continuous
 62
     1
100
AcDbLine
 10
-1.1260271959388
 20
-0.409
 30
0.0
 11
-1.1260271959388
 21
-0.3035
 31
0.0
  0
LINE
  5
63
102
{ACAD_REACTORS
330
6E
330
6E
102
}
330
3A
100
AcDbEntity
  8
1
  6
Continuous
 62
     1
100
AcDbLine
 10
-1.1880271959388
 20
-0.3035
 30
0.0
 11
-1.1880271959388
 21
-0.204
 31
0.0
  0
LINE
  5
64
330
3A
100
AcDbEntity
  8
1
  6
Continuous
 62
     1
100
AcDbLine
 10
-1.2830271959388
 20
-0.074
 30
0.0
 11
-1.2830271959388
 21
0.074
 31
0.0
  0
LINE
  5
65
102
{ACAD_REACTORS
330
6D
330
6D
102
}
330
3A
100
AcDbEntity
  8
1
  6
Continuous
 62
     1
100
AcDbLine
 10
-1.0230271959388
 20
0.074
 30
0.0
 11
-1.2830271959388
 21
0.074
 31
0.0
  0
LINE
  5
66
102
{ACAD_REACTORS
330
6E
330
6E
102
}
330
3A
100
AcDbEntity
  8
1
  6
Continuous
 62
     1
100
AcDbLine
 10
-1.0230271959388
 20
-0.074
 30
0.0
 11
-1.2830271959388
 21
-0.074
 31
0.0
  0
LINE
  5
67
330
3A
100
AcDbEntity
  8
1
  6
Continuous
 62
     1
100
AcDbLine
 10
-0.9730271959388
 20
0.124
 30
0.0
 11
-0.9730271959388
 21
-0.124
 31
0.0
  0
LINE
  5
68
102
{ACAD_REACTORS
330
6D
330
6D
102
}
330
3A
100
AcDbEntity
  8
1
  6
Continuous
 62
     1
100
AcDbLine
 10
-0.9730271959388
 20
0.409
 30
0.0
 11
-0.9730271959388
 21
0.124
 31
0.0
  0
ARC
  5
69
102
{ACAD_REACTORS
330
6D
330
6D
102
}
330
3A
100
AcDbEntity
  8
1
  6
Continuous
 62
     1
100
AcDbCircle
 10
-1.04531666962301
 20
0.0
 30
0.0
 40
0.2489624355627374
100
AcDbArc
 50
124.9751511339747
 51
162.7084779864078
  0
ARC
  5
6A
102
{ACAD_REACTORS
330
6E
330
6E
102
}
330
3A
100
AcDbEntity
  8
1
  6
Continuous
 62
     1
100
AcDbCircle
 10
-1.04531666962301
 20
0.0
 30
0.0
 40
0.2489624355627375
100
AcDbArc
 50
-162.7084779864078
 51
-124.9751511339756
  0
ARC
  5
6B
102
{ACAD_REACTORS
330
6E
330
6E
102
}
330
3A
100
AcDbEntity
  8
1
  6
Continuous
 62
     1
100
AcDbCircle
 10
-1.0230271959388
 20
-0.124
 30
0.0
 40
0.0499999999999988
100
AcDbArc
 50
0.0
 51
90.0
  0
ARC
  5
6C
102
{ACAD_REACTORS
330
6D
330
6D
102
}
330
3A
100
AcDbEntity
  8
1
  6
Continuous
 62
     1
100
AcDbCircle
 10
-1.0230271959388
 20
0.124
 30
0.0
 40
0.0500000000000027
100
AcDbArc
 50
-90.0
 51
0.0
  0
HATCH
  5
6D
330
3A
100
AcDbEntity
  8
1
  6
Continuous
 62
     1
100
AcDbHatch
 10
0.0
 20
0.0
 30
0.0
210
0.0
220
0.0
230
1.0
  2
_USER
 70
     0
 71
     1
 91
        1
 92
        1
 93
        8
 72
     1
 10
-1.126027195938803
 20
0.4089999999999999
 11
-0.9730271959388032
 21
0.4089999999999999
 72
     1
 10
-0.9730271959388032
 20
0.4089999999999999
 11
-0.9730271959388032
 21
0.1240000000000042
 72
     2
 10
-1.023027195938802
 20
0.1240000000000042
 40
0.0500000000000027
 50
0.0
 51
90.0
 73
     0
 72
     1
 10
-1.023027195938802
 20
0.0740000000000016
 11
-1.283027195938803
 21
0.0740000000000016
 72
     2
 10
-1.045316669623013
 20
0.0
 40
0.2489624355627374
 50
197.2915220135922
 51
235.0248488660253
 73
     0
 72
     1
 10
-1.188027195938801
 20
0.2040000000000024
 11
-1.188027195938801
 21
0.3034999999999989
 72
     1
 10
-1.188027195938801
 20
0.3034999999999989
 11
-1.126027195938803
 21
0.3034999999999989
 72
     1
 10
-1.126027195938803
 20
0.3034999999999989
 11
-1.126027195938803
 21
0.4089999999999999
 97
        8
330
5B
330
68
330
6C
330
65
330
69
330
60
330
5F
330
5C
 75
     1
 76
     0
 52
315.0
 41
0.04
 77
     0
 78
     1
 53
315.0
 43
0.0
 44
0.0
 45
0.0282842712474619
 46
0.0282842712474619
 79
     0
 98
        1
 10
0.0
 20
0.0
  0
HATCH
  5
6E
330
3A
100
AcDbEntity
  8
1
  6
Continuous
 62
     1
100
AcDbHatch
 10
0.0
 20
0.0
 30
0.0
210
0.0
220
0.0
230
1.0
  2
_USER
 70
     0
 71
     1
 91
        1
 92
        1
 93
        8
 72
     1
 10
-1.188027195938803
 20
-0.2039999999999979
 11
-1.188027195938801
 21
-0.3034999999999979
 72
     1
 10
-1.188027195938801
 20
-0.3034999999999979
 11
-1.126027195938803
 21
-0.3034999999999979
 72
     1
 10
-1.126027195938803
 20
-0.3034999999999979
 11
-1.126027195938803
 21
-0.4089999999999999
 72
     1
 10
-1.126027195938803
 20
-0.4089999999999999
 11
-0.9730271959388032
 21
-0.4089999999999999
 72
     1
 10
-0.9730271959388032
 20
-0.4089999999999999
 11
-0.9730271959388032
 21
-0.1240000000000031
 72
     2
 10
-1.023027195938802
 20
-0.1240000000000031
 40
0.0499999999999988
 50
0.0
 51
90.0
 73
     1
 72
     1
 10
-1.023027195938802
 20
-0.0740000000000016
 11
-1.283027195938803
 21
-0.0740000000000016
 72
     2
 10
-1.045316669623013
 20
0.0
 40
0.2489624355627375
 50
197.2915220135922
 51
235.0248488660244
 73
     1
 97
        8
330
66
330
6B
330
5E
330
5D
330
62
330
61
330
63
330
6A
 75
     1
 76
     0
 52
315.0
 41
0.04
 77
     0
 78
     1
 53
315.0
 43
0.0
 44
0.0
 45
0.0282842712474619
 46
0.0282842712474619
 79
     0
 98
        1
 10
0.0
 20
0.0
  0
ENDBLK
  5
3C
330
3A
100
AcDbEntity
  8
0
100
AcDbBlockEnd
  0
BLOCK
  5
3E
330
3D
100
AcDbEntity
  8
0
100
AcDbBlockBegin
  2
SILCA_CAP
 70
     0
 71
     0
 10
0.0253303387152
 20
8.55309200462986
 30
0.0
  3
SILCA_CAP
  1

  0
LINE
  5
6F
102
{ACAD_REACTORS
330
D9
330
D9
102
}
330
3D
100
AcDbEntity
  8
1
  6
Continuous
 62
     3
100
AcDbLine
 10
-1.3930271959388
 20
-0.476
 30
0.0
 11
-1.3930271959388
 21
-0.43307086614173
 31
0.0
  0
LINE
  5
70
102
{ACAD_REACTORS
330
D9
330
D9
102
}
330
3D
100
AcDbEntity
  8
1
  6
Continuous
 62
     3
100
AcDbLine
 10
-0.9730271959388
 20
-0.2065
 30
0.0
 11
-0.9730271959388
 21
-0.39991641328189
 31
0.0
  0
LINE
  5
71
102
{ACAD_REACTORS
330
D9
330
D9
102
}
330
3D
100
AcDbEntity
  8
1
  6
Continuous
 62
     3
100
AcDbLine
 10
-1.34649963688369
 20
-0.43307086614173
 30
0.0
 11
-1.36618467625376
 21
-0.39897537780377
 31
0.0
  0
LINE
  5
72
102
{ACAD_REACTORS
330
D9
330
D9
102
}
330
3D
100
AcDbEntity
  8
1
  6
Continuous
 62
     3
100
AcDbLine
 10
-1.36618467625376
 20
-0.39897537780377
 30
0.0
 11
-1.38586971562384
 21
-0.43307086614173
 31
0.0
  0
LINE
  5
73
102
{ACAD_REACTORS
330
D8
330
D8
102
}
330
3D
100
AcDbEntity
  8
1
  6
Continuous
 62
     3
100
AcDbLine
 10
-1.34649963688369
 20
0.39897537780376
 30
0.0
 11
-1.36618467625376
 21
0.43307086614173
 31
0.0
  0
LINE
  5
74
102
{ACAD_REACTORS
330
D8
330
D8
102
}
330
3D
100
AcDbEntity
  8
1
  6
Continuous
 62
     3
100
AcDbLine
 10
-1.36618467625376
 20
0.43307086614173
 30
0.0
 11
-1.38586971562384
 21
0.39897537780376
 31
0.0
  0
LINE
  5
75
102
{ACAD_REACTORS
330
D9
330
D9
102
}
330
3D
100
AcDbEntity
  8
1
  6
Continuous
 62
     3
100
AcDbLine
 10
-1.30712955814353
 20
-0.43307086614173
 30
0.0
 11
-1.32681459751361
 21
-0.39897537780377
 31
0.0
  0
LINE
  5
76
102
{ACAD_REACTORS
330
D9
330
D9
102
}
330
3D
100
AcDbEntity
  8
1
  6
Continuous
 62
     3
100
AcDbLine
 10
-1.32681459751361
 20
-0.39897537780377
 30
0.0
 11
-1.34649963688369
 21
-0.43307086614173
 31
0.0
  0
LINE
  5
77
102
{ACAD_REACTORS
330
D8
330
D8
102
}
330
3D
100
AcDbEntity
  8
1
  6
Continuous
 62
     3
100
AcDbLine
 10
-1.30712955814353
 20
0.39897537780376
 30
0.0
 11
-1.32681459751361
 21
0.43307086614173
 31
0.0
  0
LINE
  5
78
102
{ACAD_REACTORS
330
D8
330
D8
102
}
330
3D
100
AcDbEntity
  8
1
  6
Continuous
 62
     3
100
AcDbLine
 10
-1.32681459751361
 20
0.43307086614173
 30
0.0
 11
-1.34649963688369
 21
0.39897537780376
 31
0.0
  0
LINE
  5
79
102
{ACAD_REACTORS
330
D9
330
D9
102
}
330
3D
100
AcDbEntity
  8
1
  6
Continuous
 62
     3
100
AcDbLine
 10
-1.26775947940337
 20
-0.43307086614173
 30
0.0
 11
-1.28744451877345
 21
-0.39897537780377
 31
0.0
  0
LINE
  5
7A
102
{ACAD_REACTORS
330
D9
330
D9
102
}
330
3D
100
AcDbEntity
  8
1
  6
Continuous
 62
     3
100
AcDbLine
 10
-1.28744451877345
 20
-0.39897537780377
 30
0.0
 11
-1.30712955814353
 21
-0.43307086614173
 31
0.0
  0
LINE
  5
7B
102
{ACAD_REACTORS
330
D8
330
D8
102
}
330
3D
100
AcDbEntity
  8
1
  6
Continuous
 62
     3
100
AcDbLine
 10
-1.26775947940337
 20
0.39897537780376
 30
0.0
 11
-1.28744451877345
 21
0.43307086614173
 31
0.0
  0
LINE
  5
7C
102
{ACAD_REACTORS
330
D8
330
D8
102
}
330
3D
100
AcDbEntity
  8
1
  6
Continuous
 62
     3
100
AcDbLine
 10
-1.28744451877345
 20
0.43307086614173
 30
0.0
 11
-1.30712955814353
 21
0.39897537780376
 31
0.0
  0
LINE
  5
7D
102
{ACAD_REACTORS
330
D9
330
D9
102
}
330
3D
100
AcDbEntity
  8
1
  6
Continuous
 62
     3
100
AcDbLine
 10
-1.22838940066321
 20
-0.43307086614173
 30
0.0
 11
-1.24807444003329
 21
-0.39897537780377
 31
0.0
  0
LINE
  5
7E
102
{ACAD_REACTORS
330
D9
330
D9
102
}
330
3D
100
AcDbEntity
  8
1
  6
Continuous
 62
     3
100
AcDbLine
 10
-1.24807444003329
 20
-0.39897537780377
 30
0.0
 11
-1.26775947940337
 21
-0.43307086614173
 31
0.0
  0
LINE
  5
7F
102
{ACAD_REACTORS
330
D8
330
D8
102
}
330
3D
100
AcDbEntity
  8
1
  6
Continuous
 62
     3
100
AcDbLine
 10
-1.22838940066321
 20
0.39897537780376
 30
0.0
 11
-1.24807444003329
 21
0.43307086614173
 31
0.0
  0
LINE
  5
80
102
{ACAD_REACTORS
330
D8
330
D8
102
}
330
3D
100
AcDbEntity
  8
1
  6
Continuous
 62
     3
100
AcDbLine
 10
-1.24807444003329
 20
0.43307086614173
 30
0.0
 11
-1.26775947940337
 21
0.39897537780376
 31
0.0
  0
LINE
  5
81
330
3D
100
AcDbEntity
  8
1
  6
Continuous
 62
     3
100
AcDbLine
 10
-0.9430271959388
 20
-0.1765
 30
0.0
 11
-0.9430271959388
 21
0.1765
 31
0.0
  0
LINE
  5
82
102
{ACAD_REACTORS
330
D9
330
D9
102
}
330
3D
100
AcDbEntity
  8
1
  6
Continuous
 62
     3
100
AcDbLine
 10
-0.9730271959388
 20
-0.2065
 30
0.0
 11
-0.9430271959388
 21
-0.1765
 31
0.0
  0
LINE
  5
83
102
{ACAD_REACTORS
330
D8
330
D8
102
}
330
3D
100
AcDbEntity
  8
1
  6
Continuous
 62
     3
100
AcDbLine
 10
-0.9430271959388
 20
0.1765
 30
0.0
 11
-0.9730271959388
 21
0.2065
 31
0.0
  0
LINE
  5
84
330
3D
100
AcDbEntity
  8
1
  6
Continuous
 62
     3
100
AcDbLine
 10
-0.9730271959388
 20
0.2065
 30
0.0
 11
-0.9730271959388
 21
-0.2065
 31
0.0
  0
LINE
  5
85
330
3D
100
AcDbEntity
  8
1
  6
Continuous
 62
     3
100
AcDbLine
 10
-0.9030271959388
 20
0.1765
 30
0.0
 11
-0.9030271959388
 21
-0.1765
 31
0.0
  0
LINE
  5
86
102
{ACAD_REACTORS
330
D9
330
D9
102
}
330
3D
100
AcDbEntity
  8
1
  6
Continuous
 62
     3
100
AcDbLine
 10
-0.9430271959388
 20
-0.1765
 30
0.0
 11
-0.9030271959388
 21
-0.1765
 31
0.0
  0
LINE
  5
87
102
{ACAD_REACTORS
330
D8
330
D8
102
}
330
3D
100
AcDbEntity
  8
1
  6
Continuous
 62
     3
100
AcDbLine
 10
-0.9030271959388
 20
0.476
 30
0.0
 11
-0.9030271959388
 21
0.1765
 31
0.0
  0
LINE
  5
88
102
{ACAD_REACTORS
330
D8
330
D8
102
}
330
3D
100
AcDbEntity
  8
1
  6
Continuous
 62
     3
100
AcDbLine
 10
-0.9430271959388
 20
0.1765
 30
0.0
 11
-0.9030271959388
 21
0.1765
 31
0.0
  0
LINE
  5
89
102
{ACAD_REACTORS
330
D8
330
D8
102
}
330
3D
100
AcDbEntity
  8
1
  6
Continuous
 62
     3
100
AcDbLine
 10
-1.20870436129313
 20
0.43307086614173
 30
0.0
 11
-1.22838940066321
 21
0.39897537780376
 31
0.0
  0
LINE
  5
8A
102
{ACAD_REACTORS
330
D8
330
D8
102
}
330
3D
100
AcDbEntity
  8
1
  6
Continuous
 62
     3
100
AcDbLine
 10
-1.18901932192305
 20
0.39897537780376
 30
0.0
 11
-1.20870436129313
 21
0.43307086614173
 31
0.0
  0
LINE
  5
8B
102
{ACAD_REACTORS
330
D8
330
D8
102
}
330
3D
100
AcDbEntity
  8
1
  6
Continuous
 62
     3
100
AcDbLine
 10
-1.16933428255298
 20
0.43307086614173
 30
0.0
 11
-1.18901932192305
 21
0.39897537780376
 31
0.0
  0
LINE
  5
8C
102
{ACAD_REACTORS
330
D9
330
D9
102
}
330
3D
100
AcDbEntity
  8
1
  6
Continuous
 62
     3
100
AcDbLine
 10
-1.20870436129313
 20
-0.39897537780377
 30
0.0
 11
-1.22838940066321
 21
-0.43307086614173
 31
0.0
  0
LINE
  5
8D
102
{ACAD_REACTORS
330
D9
330
D9
102
}
330
3D
100
AcDbEntity
  8
1
  6
Continuous
 62
     3
100
AcDbLine
 10
-1.18901932192305
 20
-0.43307086614173
 30
0.0
 11
-1.20870436129313
 21
-0.39897537780377
 31
0.0
  0
LINE
  5
8E
102
{ACAD_REACTORS
330
D9
330
D9
102
}
330
3D
100
AcDbEntity
  8
1
  6
Continuous
 62
     3
100
AcDbLine
 10
-1.16933428255298
 20
-0.39897537780377
 30
0.0
 11
-1.18901932192305
 21
-0.43307086614173
 31
0.0
  0
LINE
  5
8F
330
3D
100
AcDbEntity
  8
1
  6
Continuous
 62
     3
100
AcDbLine
 10
-0.9730271959388
 20
0.3996062992126
 30
0.0
 11
-0.9730271959388
 21
0.39897537780376
 31
0.0
  0
LINE
  5
90
102
{ACAD_REACTORS
330
D8
330
D8
102
}
330
3D
100
AcDbEntity
  8
1
  6
Continuous
 62
     3
100
AcDbLine
 10
-1.1496492431829
 20
0.39897537780376
 30
0.0
 11
-1.16933428255298
 21
0.43307086614173
 31
0.0
  0
LINE
  5
91
102
{ACAD_REACTORS
330
D8
330
D8
102
}
330
3D
100
AcDbEntity
  8
1
  6
Continuous
 62
     3
100
AcDbLine
 10
-1.12996420381282
 20
0.43307086614173
 30
0.0
 11
-1.1496492431829
 21
0.39897537780376
 31
0.0
  0
LINE
  5
92
102
{ACAD_REACTORS
330
D8
330
D8
102
}
330
3D
100
AcDbEntity
  8
1
  6
Continuous
 62
     3
100
AcDbLine
 10
-1.11027916444274
 20
0.39897537780376
 30
0.0
 11
-1.12996420381282
 21
0.43307086614173
 31
0.0
  0
LINE
  5
93
102
{ACAD_REACTORS
330
D8
330
D8
102
}
330
3D
100
AcDbEntity
  8
1
  6
Continuous
 62
     3
100
AcDbLine
 10
-1.09059412507266
 20
0.43307086614173
 30
0.0
 11
-1.11027916444274
 21
0.39897537780376
 31
0.0
  0
LINE
  5
94
102
{ACAD_REACTORS
330
D8
330
D8
102
}
330
3D
100
AcDbEntity
  8
1
  6
Continuous
 62
     3
100
AcDbLine
 10
-1.07090908570258
 20
0.39897537780376
 30
0.0
 11
-1.09059412507266
 21
0.43307086614173
 31
0.0
  0
LINE
  5
95
102
{ACAD_REACTORS
330
D8
330
D8
102
}
330
3D
100
AcDbEntity
  8
1
  6
Continuous
 62
     3
100
AcDbLine
 10
-1.0512240463325
 20
0.43307086614173
 30
0.0
 11
-1.07090908570258
 21
0.39897537780376
 31
0.0
  0
LINE
  5
96
102
{ACAD_REACTORS
330
D8
330
D8
102
}
330
3D
100
AcDbEntity
  8
1
  6
Continuous
 62
     3
100
AcDbLine
 10
-1.03153900696243
 20
0.39897537780376
 30
0.0
 11
-1.0512240463325
 21
0.43307086614173
 31
0.0
  0
LINE
  5
97
102
{ACAD_REACTORS
330
D8
330
D8
102
}
330
3D
100
AcDbEntity
  8
1
  6
Continuous
 62
     3
100
AcDbLine
 10
-1.01185396759235
 20
0.43307086614173
 30
0.0
 11
-1.03153900696243
 21
0.39897537780376
 31
0.0
  0
LINE
  5
98
102
{ACAD_REACTORS
330
D8
330
D8
102
}
330
3D
100
AcDbEntity
  8
1
  6
Continuous
 62
     3
100
AcDbLine
 10
-0.99216892822227
 20
0.39897537780376
 30
0.0
 11
-1.01185396759235
 21
0.43307086614173
 31
0.0
  0
LINE
  5
99
102
{ACAD_REACTORS
330
D9
330
D9
102
}
330
3D
100
AcDbEntity
  8
1
  6
Continuous
 62
     3
100
AcDbLine
 10
-1.1496492431829
 20
-0.43307086614173
 30
0.0
 11
-1.16933428255298
 21
-0.39897537780377
 31
0.0
  0
LINE
  5
9A
102
{ACAD_REACTORS
330
D9
330
D9
102
}
330
3D
100
AcDbEntity
  8
1
  6
Continuous
 62
     3
100
AcDbLine
 10
-1.12996420381282
 20
-0.39897537780377
 30
0.0
 11
-1.1496492431829
 21
-0.43307086614173
 31
0.0
  0
LINE
  5
9B
102
{ACAD_REACTORS
330
D9
330
D9
102
}
330
3D
100
AcDbEntity
  8
1
  6
Continuous
 62
     3
100
AcDbLine
 10
-1.11027916444274
 20
-0.43307086614173
 30
0.0
 11
-1.12996420381282
 21
-0.39897537780377
 31
0.0
  0
LINE
  5
9C
102
{ACAD_REACTORS
330
D9
330
D9
102
}
330
3D
100
AcDbEntity
  8
1
  6
Continuous
 62
     3
100
AcDbLine
 10
-1.09059412507266
 20
-0.39897537780377
 30
0.0
 11
-1.11027916444274
 21
-0.43307086614173
 31
0.0
  0
LINE
  5
9D
102
{ACAD_REACTORS
330
D9
330
D9
102
}
330
3D
100
AcDbEntity
  8
1
  6
Continuous
 62
     3
100
AcDbLine
 10
-1.07090908570258
 20
-0.43307086614173
 30
0.0
 11
-1.09059412507266
 21
-0.39897537780377
 31
0.0
  0
LINE
  5
9E
102
{ACAD_REACTORS
330
D9
330
D9
102
}
330
3D
100
AcDbEntity
  8
1
  6
Continuous
 62
     3
100
AcDbLine
 10
-1.0512240463325
 20
-0.39897537780377
 30
0.0
 11
-1.07090908570258
 21
-0.43307086614173
 31
0.0
  0
LINE
  5
9F
102
{ACAD_REACTORS
330
D9
330
D9
102
}
330
3D
100
AcDbEntity
  8
1
  6
Continuous
 62
     3
100
AcDbLine
 10
-1.03153900696243
 20
-0.43307086614173
 30
0.0
 11
-1.0512240463325
 21
-0.39897537780377
 31
0.0
  0
LINE
  5
A0
102
{ACAD_REACTORS
330
D9
330
D9
102
}
330
3D
100
AcDbEntity
  8
1
  6
Continuous
 62
     3
100
AcDbLine
 10
-1.01185396759235
 20
-0.39897537780377
 30
0.0
 11
-1.03153900696243
 21
-0.43307086614173
 31
0.0
  0
LINE
  5
A1
102
{ACAD_REACTORS
330
D9
330
D9
102
}
330
3D
100
AcDbEntity
  8
1
  6
Continuous
 62
     3
100
AcDbLine
 10
-0.99216892822227
 20
-0.43307086614173
 30
0.0
 11
-1.01185396759235
 21
-0.39897537780377
 31
0.0
  0
LINE
  5
A2
102
{ACAD_REACTORS
330
D9
330
D9
102
}
330
3D
100
AcDbEntity
  8
1
  6
Continuous
 62
     3
100
AcDbLine
 10
-0.9730271959388
 20
-0.39991641328189
 30
0.0
 11
-0.99216892822227
 21
-0.43307086614173
 31
0.0
  0
LINE
  5
A3
102
{ACAD_REACTORS
330
D8
330
D8
102
}
330
3D
100
AcDbEntity
  8
1
  6
Continuous
 62
     3
100
AcDbLine
 10
-1.0730271959388
 20
0.496
 30
0.0
 11
-0.9230271959388
 21
0.496
 31
0.0
  0
LINE
  5
A4
102
{ACAD_REACTORS
330
D8
330
D8
102
}
330
3D
100
AcDbEntity
  8
1
  6
Continuous
 62
     3
100
AcDbLine
 10
-1.0930271959388
 20
0.4745
 30
0.0
 11
-1.0930271959388
 21
0.476
 31
0.0
  0
LINE
  5
A5
102
{ACAD_REACTORS
330
D9
330
D9
102
}
330
3D
100
AcDbEntity
  8
1
  6
Continuous
 62
     3
100
AcDbLine
 10
-0.9230271959388
 20
-0.496
 30
0.0
 11
-1.0730271959388
 21
-0.496
 31
0.0
  0
LINE
  5
A6
102
{ACAD_REACTORS
330
D9
330
D9
102
}
330
3D
100
AcDbEntity
  8
1
  6
Continuous
 62
     3
100
AcDbLine
 10
-0.9030271959388
 20
-0.1765
 30
0.0
 11
-0.9030271959388
 21
-0.476
 31
0.0
  0
LINE
  5
A7
102
{ACAD_REACTORS
330
D8
330
D8
102
}
330
3D
100
AcDbEntity
  8
1
  6
Continuous
 62
     3
100
AcDbLine
 10
-1.3730271959388
 20
0.496
 30
0.0
 11
-1.2230271959388
 21
0.496
 31
0.0
  0
LINE
  5
A8
102
{ACAD_REACTORS
330
D8
330
D8
102
}
330
3D
100
AcDbEntity
  8
1
  6
Continuous
 62
     3
100
AcDbLine
 10
-1.3930271959388
 20
0.39897537780376
 30
0.0
 11
-1.3930271959388
 21
0.476
 31
0.0
  0
LINE
  5
A9
102
{ACAD_REACTORS
330
D9
330
D9
102
}
330
3D
100
AcDbEntity
  8
1
  6
Continuous
 62
     3
100
AcDbLine
 10
-1.2230271959388
 20
-0.496
 30
0.0
 11
-1.3730271959388
 21
-0.496
 31
0.0
  0
LINE
  5
AA
102
{ACAD_REACTORS
330
D9
330
D9
102
}
330
3D
100
AcDbEntity
  8
1
  6
Continuous
 62
     3
100
AcDbLine
 10
-1.2030271959388
 20
-0.4745
 30
0.0
 11
-1.2030271959388
 21
-0.476
 31
0.0
  0
LINE
  5
AB
102
{ACAD_REACTORS
330
D8
330
D8
102
}
330
3D
100
AcDbEntity
  8
1
  6
Continuous
 62
     3
100
AcDbLine
 10
-1.2030271959388
 20
0.4745
 30
0.0
 11
-1.0930271959388
 21
0.4745
 31
0.0
  0
LINE
  5
AC
102
{ACAD_REACTORS
330
D8
330
D8
102
}
330
3D
100
AcDbEntity
  8
1
  6
Continuous
 62
     3
100
AcDbLine
 10
-1.2030271959388
 20
0.476
 30
0.0
 11
-1.2030271959388
 21
0.4745
 31
0.0
  0
LINE
  5
AD
102
{ACAD_REACTORS
330
D9
330
D9
102
}
330
3D
100
AcDbEntity
  8
1
  6
Continuous
 62
     3
100
AcDbLine
 10
-1.2030271959388
 20
-0.4745
 30
0.0
 11
-1.0930271959388
 21
-0.4745
 31
0.0
  0
LINE
  5
AE
102
{ACAD_REACTORS
330
D9
330
D9
102
}
330
3D
100
AcDbEntity
  8
1
  6
Continuous
 62
     3
100
AcDbLine
 10
-1.0930271959388
 20
-0.476
 30
0.0
 11
-1.0930271959388
 21
-0.4745
 31
0.0
  0
LINE
  5
AF
102
{ACAD_REACTORS
330
D8
330
D8
102
}
330
3D
100
AcDbEntity
  8
1
  6
Continuous
 62
     3
100
AcDbLine
 10
-0.9230271959388
 20
0.496
 30
0.0
 11
-0.9030271959388
 21
0.476
 31
0.0
  0
LINE
  5
B0
102
{ACAD_REACTORS
330
D8
330
D8
102
}
330
3D
100
AcDbEntity
  8
1
  6
Continuous
 62
     3
100
AcDbLine
 10
-1.3930271959388
 20
0.476
 30
0.0
 11
-1.3730271959388
 21
0.496
 31
0.0
  0
LINE
  5
B1
102
{ACAD_REACTORS
330
D9
330
D9
102
}
330
3D
100
AcDbEntity
  8
1
  6
Continuous
 62
     3
100
AcDbLine
 10
-1.3730271959388
 20
-0.496
 30
0.0
 11
-1.3930271959388
 21
-0.476
 31
0.0
  0
LINE
  5
B2
102
{ACAD_REACTORS
330
D9
330
D9
102
}
330
3D
100
AcDbEntity
  8
1
  6
Continuous
 62
     3
100
AcDbLine
 10
-0.9030271959388
 20
-0.476
 30
0.0
 11
-0.9230271959388
 21
-0.496
 31
0.0
  0
LINE
  5
B3
102
{ACAD_REACTORS
330
D9
330
D9
102
}
330
3D
100
AcDbEntity
  8
1
  6
Continuous
 62
     3
100
AcDbLine
 10
-1.2030271959388
 20
-0.476
 30
0.0
 11
-1.2230271959388
 21
-0.496
 31
0.0
  0
LINE
  5
B4
102
{ACAD_REACTORS
330
D9
330
D9
102
}
330
3D
100
AcDbEntity
  8
1
  6
Continuous
 62
     3
100
AcDbLine
 10
-1.0730271959388
 20
-0.496
 30
0.0
 11
-1.0930271959388
 21
-0.476
 31
0.0
  0
LINE
  5
B5
102
{ACAD_REACTORS
330
D8
330
D8
102
}
330
3D
100
AcDbEntity
  8
1
  6
Continuous
 62
     3
100
AcDbLine
 10
-1.2030271959388
 20
0.476
 30
0.0
 11
-1.2230271959388
 21
0.496
 31
0.0
  0
LINE
  5
B6
102
{ACAD_REACTORS
330
D8
330
D8
102
}
330
3D
100
AcDbEntity
  8
1
  6
Continuous
 62
     3
100
AcDbLine
 10
-1.0930271959388
 20
0.476
 30
0.0
 11
-1.0730271959388
 21
0.496
 31
0.0
  0
LINE
  5
B7
102
{ACAD_REACTORS
330
D7
330
D7
102
}
330
3D
100
AcDbEntity
  8
1
  6
Continuous
 62
     3
100
AcDbLine
 10
0.9230271959388
 20
-0.496
 30
0.0
 11
0.9230271959388
 21
0.496
 31
0.0
  0
LINE
  5
B8
102
{ACAD_REACTORS
330
D7
330
D7
102
}
330
3D
100
AcDbEntity
  8
1
  6
Continuous
 62
     3
100
AcDbLine
 10
1.0730271959388
 20
0.496
 30
0.0
 11
1.0730271959388
 21
-0.496
 31
0.0
  0
LINE
  5
B9
102
{ACAD_REACTORS
330
D6
330
D6
102
}
330
3D
100
AcDbEntity
  8
1
  6
Continuous
 62
     3
100
AcDbLine
 10
1.2230271959388
 20
-0.496
 30
0.0
 11
1.2230271959388
 21
0.496
 31
0.0
  0
LINE
  5
BA
102
{ACAD_REACTORS
330
D6
330
D6
102
}
330
3D
100
AcDbEntity
  8
1
  6
Continuous
 62
     3
100
AcDbLine
 10
1.3730271959388
 20
0.496
 30
0.0
 11
1.3730271959388
 21
-0.496
 31
0.0
  0
LINE
  5
BB
330
3D
100
AcDbEntity
  8
1
  6
Continuous
 62
     3
100
AcDbLine
 10
1.0730271959388
 20
0.496
 30
0.0
 11
1.0930271959388
 21
0.476
 31
0.0
  0
LINE
  5
BC
330
3D
100
AcDbEntity
  8
1
  6
Continuous
 62
     3
100
AcDbLine
 10
1.2230271959388
 20
0.496
 30
0.0
 11
1.2030271959388
 21
0.476
 31
0.0
  0
LINE
  5
BD
330
3D
100
AcDbEntity
  8
1
  6
Continuous
 62
     3
100
AcDbLine
 10
1.0930271959388
 20
-0.476
 30
0.0
 11
1.0730271959388
 21
-0.496
 31
0.0
  0
LINE
  5
BE
330
3D
100
AcDbEntity
  8
1
  6
Continuous
 62
     3
100
AcDbLine
 10
1.2230271959388
 20
-0.496
 30
0.0
 11
1.2030271959388
 21
-0.476
 31
0.0
  0
LINE
  5
BF
330
3D
100
AcDbEntity
  8
1
  6
Continuous
 62
     3
100
AcDbLine
 10
0.9230271959388
 20
-0.496
 30
0.0
 11
0.9030271959388
 21
-0.476
 31
0.0
  0
LINE
  5
C0
330
3D
100
AcDbEntity
  8
1
  6
Continuous
 62
     3
100
AcDbLine
 10
1.3930271959388
 20
-0.476
 30
0.0
 11
1.3730271959388
 21
-0.496
 31
0.0
  0
LINE
  5
C1
330
3D
100
AcDbEntity
  8
1
  6
Continuous
 62
     3
100
AcDbLine
 10
1.3730271959388
 20
0.496
 30
0.0
 11
1.3930271959388
 21
0.476
 31
0.0
  0
LINE
  5
C2
330
3D
100
AcDbEntity
  8
1
  6
Continuous
 62
     3
100
AcDbLine
 10
0.9030271959388
 20
0.476
 30
0.0
 11
0.9230271959388
 21
0.496
 31
0.0
  0
LINE
  5
C3
330
3D
100
AcDbEntity
  8
1
  6
Continuous
 62
     3
100
AcDbLine
 10
1.0930271959388
 20
-0.4745
 30
0.0
 11
1.0930271959388
 21
-0.476
 31
0.0
  0
LINE
  5
C4
330
3D
100
AcDbEntity
  8
1
  6
Continuous
 62
     3
100
AcDbLine
 10
1.2030271959388
 20
-0.4745
 30
0.0
 11
1.2030271959388
 21
0.4745
 31
0.0
  0
LINE
  5
C5
330
3D
100
AcDbEntity
  8
1
  6
Continuous
 62
     3
100
AcDbLine
 10
1.0930271959388
 20
-0.4745
 30
0.0
 11
1.2030271959388
 21
-0.4745
 31
0.0
  0
LINE
  5
C6
330
3D
100
AcDbEntity
  8
1
  6
Continuous
 62
     3
100
AcDbLine
 10
1.2030271959388
 20
0.4745
 30
0.0
 11
1.2030271959388
 21
0.476
 31
0.0
  0
LINE
  5
C7
330
3D
100
AcDbEntity
  8
1
  6
Continuous
 62
     3
100
AcDbLine
 10
1.0930271959388
 20
0.4745
 30
0.0
 11
1.0930271959388
 21
-0.4745
 31
0.0
  0
LINE
  5
C8
330
3D
100
AcDbEntity
  8
1
  6
Continuous
 62
     3
100
AcDbLine
 10
1.0930271959388
 20
0.4745
 30
0.0
 11
1.2030271959388
 21
0.4745
 31
0.0
  0
LINE
  5
C9
330
3D
100
AcDbEntity
  8
1
  6
Continuous
 62
     3
100
AcDbLine
 10
1.2030271959388
 20
-0.476
 30
0.0
 11
1.2030271959388
 21
-0.4745
 31
0.0
  0
LINE
  5
CA
102
{ACAD_REACTORS
330
D6
330
D6
102
}
330
3D
100
AcDbEntity
  8
1
  6
Continuous
 62
     3
100
AcDbLine
 10
1.3730271959388
 20
-0.496
 30
0.0
 11
1.2230271959388
 21
-0.496
 31
0.0
  0
LINE
  5
CB
330
3D
100
AcDbEntity
  8
1
  6
Continuous
 62
     3
100
AcDbLine
 10
1.3930271959388
 20
0.476
 30
0.0
 11
1.3930271959388
 21
-0.476
 31
0.0
  0
LINE
  5
CC
102
{ACAD_REACTORS
330
D6
330
D6
102
}
330
3D
100
AcDbEntity
  8
1
  6
Continuous
 62
     3
100
AcDbLine
 10
1.2230271959388
 20
0.496
 30
0.0
 11
1.3730271959388
 21
0.496
 31
0.0
  0
LINE
  5
CD
330
3D
100
AcDbEntity
  8
1
  6
Continuous
 62
     3
100
AcDbLine
 10
0.9030271959388
 20
-0.476
 30
0.0
 11
0.9030271959388
 21
0.476
 31
0.0
  0
LINE
  5
CE
102
{ACAD_REACTORS
330
D7
330
D7
102
}
330
3D
100
AcDbEntity
  8
1
  6
Continuous
 62
     3
100
AcDbLine
 10
1.0730271959388
 20
-0.496
 30
0.0
 11
0.9230271959388
 21
-0.496
 31
0.0
  0
LINE
  5
CF
330
3D
100
AcDbEntity
  8
1
  6
Continuous
 62
     3
100
AcDbLine
 10
1.0930271959388
 20
0.476
 30
0.0
 11
1.0930271959388
 21
0.4745
 31
0.0
  0
LINE
  5
D0
102
{ACAD_REACTORS
330
D7
330
D7
102
}
330
3D
100
AcDbEntity
  8
1
  6
Continuous
 62
     3
100
AcDbLine
 10
0.9230271959388
 20
0.496
 30
0.0
 11
1.0730271959388
 21
0.496
 31
0.0
  0
LINE
  5
D1
102
{ACAD_REACTORS
330
D8
330
D8
102
}
330
3D
100
AcDbEntity
  8
1
  6
Continuous
 62
     3
100
AcDbLine
 10
-1.3930271959388
 20
0.39897537780376
 30
0.0
 11
-1.38586971562384
 21
0.39897537780376
 31
0.0
  0
LINE
  5
D2
330
3D
100
AcDbEntity
  8
1
  6
Continuous
 62
     3
100
AcDbLine
 10
-0.99216892822227
 20
0.39897537780376
 30
0.0
 11
-0.99216892822227
 21
0.3996062992126
 31
0.0
  0
LINE
  5
D3
102
{ACAD_REACTORS
330
D8
330
D8
102
}
330
3D
100
AcDbEntity
  8
1
  6
Continuous
 62
     3
100
AcDbLine
 10
-0.99216892822227
 20
0.39897537780376
 30
0.0
 11
-0.9730271959388
 21
0.39897537780376
 31
0.0
  0
LINE
  5
D4
102
{ACAD_REACTORS
330
D8
330
D8
102
}
330
3D
100
AcDbEntity
  8
1
  6
Continuous
 62
     3
100
AcDbLine
 10
-0.9730271959388
 20
0.39897537780376
 30
0.0
 11
-0.9730271959388
 21
0.2065
 31
0.0
  0
LINE
  5
D5
102
{ACAD_REACTORS
330
D9
330
D9
102
}
330
3D
100
AcDbEntity
  8
1
  6
Continuous
 62
     3
100
AcDbLine
 10
-1.3930271959388
 20
-0.43307086614173
 30
0.0
 11
-1.38586971562384
 21
-0.43307086614173
 31
0.0
  0
HATCH
  5
D6
330
3D
100
AcDbEntity
  8
1
  6
Continuous
 62
     3
100
AcDbHatch
 10
0.0
 20
0.0
 30
0.0
210
0.0
220
0.0
230
1.0
  2
CUSTOM0
 70
     0
 71
     1
 91
        1
 92
        1
 93
        4
 72
     1
 10
1.373027195938802
 20
0.4960000000000022
 11
1.373027195938802
 21
-0.4959999999999978
 72
     1
 10
1.373027195938802
 20
-0.4959999999999977
 11
1.223027195938802
 21
-0.4959999999999977
 72
     1
 10
1.223027195938802
 20
-0.4959999999999977
 11
1.223027195938802
 21
0.4960000000000023
 72
     1
 10
1.223027195938802
 20
0.4960000000000022
 11
1.373027195938802
 21
0.4960000000000022
 97
        4
330
BA
330
CA
330
B9
330
CC
 75
     1
 76
     2
 52
45.0
 41
0.04
 77
     0
 78
     2
 53
45.0
 43
1.587438935285671
 44
6.901907164480327
 45
-0.0565685424949238
 46
0.0
 79
     0
 53
135.0
 43
1.587438935285671
 44
6.901907164480327
 45
0.0
 46
-0.0565685424949238
 79
     0
 98
        1
 10
0.0
 20
0.0
  0
HATCH
  5
D7
330
3D
100
AcDbEntity
  8
1
  6
Continuous
 62
     3
100
AcDbHatch
 10
0.0
 20
0.0
 30
0.0
210
0.0
220
0.0
230
1.0
  2
CUSTOM1
 70
     0
 71
     1
 91
        1
 92
        1
 93
        4
 72
     1
 10
1.073027195938802
 20
0.4960000000000022
 11
1.073027195938802
 21
-0.4959999999999978
 72
     1
 10
1.073027195938802
 20
-0.4959999999999977
 11
0.9230271959388019
 21
-0.4959999999999977
 72
     1
 10
0.9230271959388019
 20
-0.4959999999999977
 11
0.9230271959388019
 21
0.4960000000000023
 72
     1
 10
0.9230271959388019
 20
0.4960000000000022
 11
1.073027195938802
 21
0.4960000000000022
 97
        4
330
B8
330
CE
330
B7
330
D0
 75
     1
 76
     2
 52
45.0
 41
0.04
 77
     0
 78
     2
 53
45.0
 43
1.587438935285671
 44
6.901907164480327
 45
-0.0565685424949238
 46
0.0
 79
     0
 53
135.0
 43
1.587438935285671
 44
6.901907164480327
 45
0.0
 46
-0.0565685424949238
 79
     0
 98
        1
 10
0.0
 20
0.0
  0
HATCH
  5
D8
330
3D
100
AcDbEntity
  8
1
  6
Continuous
 62
     3
100
AcDbHatch
 10
0.0
 20
0.0
 30
0.0
210
0.0
220
0.0
230
1.0
  2
_USER
 70
     0
 71
     1
 91
        1
 92
        1
 93
       36
 72
     1
 10
-0.9030271959388028
 20
0.4759999999999974
 11
-0.9030271959388028
 21
0.1764999999999981
 72
     1
 10
-0.9030271959388028
 20
0.1764999999999981
 11
-0.9430271959388026
 21
0.1764999999999981
 72
     1
 10
-0.9430271959388026
 20
0.1764999999999981
 11
-0.9730271959388032
 21
0.2064999999999992
 72
     1
 10
-0.9730271959388032
 20
0.2064999999999992
 11
-0.9730271959388032
 21
0.3989753778037607
 72
     1
 10
-0.9730271959388032
 20
0.3989753778037607
 11
-0.9921689282222679
 21
0.3989753778037607
 72
     1
 10
-0.9921689282222679
 20
0.3989753778037607
 11
-1.011853967592347
 21
0.4330708661417289
 72
     1
 10
-1.011853967592347
 20
0.4330708661417289
 11
-1.031539006962426
 21
0.3989753778037607
 72
     1
 10
-1.031539006962426
 20
0.3989753778037607
 11
-1.051224046332504
 21
0.4330708661417289
 72
     1
 10
-1.051224046332504
 20
0.4330708661417289
 11
-1.070909085702582
 21
0.3989753778037607
 72
     1
 10
-1.070909085702582
 20
0.3989753778037607
 11
-1.090594125072662
 21
0.4330708661417289
 72
     1
 10
-1.090594125072662
 20
0.4330708661417289
 11
-1.110279164442741
 21
0.3989753778037607
 72
     1
 10
-1.110279164442741
 20
0.3989753778037607
 11
-1.12996420381282
 21
0.4330708661417289
 72
     1
 10
-1.12996420381282
 20
0.4330708661417289
 11
-1.149649243182898
 21
0.3989753778037607
 72
     1
 10
-1.149649243182898
 20
0.3989753778037607
 11
-1.169334282552977
 21
0.4330708661417289
 72
     1
 10
-1.169334282552977
 20
0.4330708661417289
 11
-1.189019321923055
 21
0.3989753778037607
 72
     1
 10
-1.189019321923055
 20
0.3989753778037607
 11
-1.208704361293134
 21
0.4330708661417289
 72
     1
 10
-1.208704361293134
 20
0.4330708661417289
 11
-1.228389400663212
 21
0.3989753778037607
 72
     1
 10
-1.228389400663212
 20
0.3989753778037607
 11
-1.248074440033292
 21
0.4330708661417289
 72
     1
 10
-1.248074440033292
 20
0.4330708661417289
 11
-1.267759479403371
 21
0.3989753778037607
 72
     1
 10
-1.267759479403371
 20
0.3989753778037607
 11
-1.287444518773449
 21
0.4330708661417289
 72
     1
 10
-1.287444518773449
 20
0.4330708661417289
 11
-1.307129558143528
 21
0.3989753778037607
 72
     1
 10
-1.307129558143528
 20
0.3989753778037607
 11
-1.326814597513606
 21
0.4330708661417289
 72
     1
 10
-1.326814597513606
 20
0.4330708661417289
 11
-1.346499636883686
 21
0.3989753778037607
 72
     1
 10
-1.346499636883686
 20
0.3989753778037607
 11
-1.366184676253764
 21
0.4330708661417289
 72
     1
 10
-1.366184676253764
 20
0.4330708661417289
 11
-1.385869715623843
 21
0.3989753778037607
 72
     1
 10
-1.385869715623843
 20
0.3989753778037607
 11
-1.393027195938803
 21
0.3989753778037607
 72
     1
 10
-1.393027195938803
 20
0.3989753778037607
 11
-1.393027195938803
 21
0.4759999999999974
 72
     1
 10
-1.393027195938803
 20
0.4759999999999974
 11
-1.373027195938803
 21
0.4960000000000022
 72
     1
 10
-1.373027195938803
 20
0.4960000000000022
 11
-1.223027195938803
 21
0.4960000000000022
 72
     1
 10
-1.223027195938803
 20
0.4960000000000022
 11
-1.203027195938803
 21
0.4759999999999974
 72
     1
 10
-1.203027195938803
 20
0.4759999999999974
 11
-1.203027195938803
 21
0.474499999999999
 72
     1
 10
-1.203027195938803
 20
0.474499999999999
 11
-1.093027195938803
 21
0.474499999999999
 72
     1
 10
-1.093027195938803
 20
0.474499999999999
 11
-1.093027195938803
 21
0.4759999999999974
 72
     1
 10
-1.093027195938803
 20
0.4759999999999974
 11
-1.073027195938803
 21
0.4960000000000022
 72
     1
 10
-1.073027195938803
 20
0.4960000000000022
 11
-0.9230271959388029
 21
0.4960000000000022
 72
     1
 10
-0.9230271959388029
 20
0.4960000000000022
 11
-0.9030271959388028
 21
0.4759999999999974
 97
       36
330
A3
330
B6
330
A4
330
AB
330
AC
330
B5
330
A7
330
B0
330
A8
330
D1
330
74
330
73
330
78
330
77
330
7C
330
7B
330
80
330
7F
330
89
330
8A
330
8B
330
90
330
91
330
92
330
93
330
94
330
95
330
96
330
97
330
98
330
D3
330
D4
330
83
330
88
330
87
330
AF
 75
     1
 76
     0
 52
45.0
 41
0.04
 77
     0
 78
     1
 53
45.0
 43
0.0
 44
0.0
 45
-0.0282842712474619
 46
0.0282842712474619
 79
     0
 98
        1
 10
0.0
 20
0.0
  0
HATCH
  5
D9
330
3D
100
AcDbEntity
  8
1
  6
Continuous
 62
     3
100
AcDbHatch
 10
0.0
 20
0.0
 30
0.0
210
0.0
220
0.0
230
1.0
  2
_USER
 70
     0
 71
     1
 91
        1
 92
        1
 93
       36
 72
     1
 10
-0.9030271959388028
 20
-0.4760000000000019
 11
-0.9230271959388029
 21
-0.4959999999999977
 72
     1
 10
-0.9230271959388029
 20
-0.4959999999999977
 11
-1.073027195938803
 21
-0.4959999999999977
 72
     1
 10
-1.073027195938803
 20
-0.4959999999999977
 11
-1.093027195938803
 21
-0.4760000000000019
 72
     1
 10
-1.093027195938803
 20
-0.4760000000000019
 11
-1.093027195938803
 21
-0.474499999999999
 72
     1
 10
-1.093027195938803
 20
-0.474499999999999
 11
-1.203027195938803
 21
-0.474499999999999
 72
     1
 10
-1.203027195938803
 20
-0.474499999999999
 11
-1.203027195938803
 21
-0.4760000000000019
 72
     1
 10
-1.203027195938803
 20
-0.4760000000000019
 11
-1.223027195938803
 21
-0.4959999999999977
 72
     1
 10
-1.223027195938803
 20
-0.4959999999999977
 11
-1.373027195938803
 21
-0.4959999999999977
 72
     1
 10
-1.373027195938803
 20
-0.4959999999999977
 11
-1.393027195938803
 21
-0.4760000000000019
 72
     1
 10
-1.393027195938803
 20
-0.4760000000000019
 11
-1.393027195938803
 21
-0.4330708661417324
 72
     1
 10
-1.393027195938803
 20
-0.4330708661417324
 11
-1.385869715623843
 21
-0.4330708661417324
 72
     1
 10
-1.385869715623843
 20
-0.4330708661417324
 11
-1.366184676253764
 21
-0.3989753778037652
 72
     1
 10
-1.366184676253764
 20
-0.3989753778037652
 11
-1.346499636883686
 21
-0.4330708661417324
 72
     1
 10
-1.346499636883686
 20
-0.4330708661417324
 11
-1.326814597513606
 21
-0.3989753778037652
 72
     1
 10
-1.326814597513606
 20
-0.3989753778037652
 11
-1.307129558143528
 21
-0.4330708661417324
 72
     1
 10
-1.307129558143528
 20
-0.4330708661417324
 11
-1.287444518773448
 21
-0.3989753778037652
 72
     1
 10
-1.287444518773448
 20
-0.3989753778037652
 11
-1.267759479403371
 21
-0.4330708661417324
 72
     1
 10
-1.267759479403371
 20
-0.4330708661417324
 11
-1.248074440033292
 21
-0.3989753778037652
 72
     1
 10
-1.248074440033292
 20
-0.3989753778037652
 11
-1.228389400663212
 21
-0.4330708661417324
 72
     1
 10
-1.228389400663212
 20
-0.4330708661417324
 11
-1.208704361293134
 21
-0.3989753778037652
 72
     1
 10
-1.208704361293134
 20
-0.3989753778037652
 11
-1.189019321923055
 21
-0.4330708661417324
 72
     1
 10
-1.189019321923055
 20
-0.4330708661417324
 11
-1.169334282552976
 21
-0.3989753778037652
 72
     1
 10
-1.169334282552976
 20
-0.3989753778037652
 11
-1.149649243182898
 21
-0.4330708661417324
 72
     1
 10
-1.149649243182898
 20
-0.4330708661417324
 11
-1.129964203812819
 21
-0.3989753778037652
 72
     1
 10
-1.129964203812819
 20
-0.3989753778037652
 11
-1.110279164442741
 21
-0.4330708661417324
 72
     1
 10
-1.110279164442741
 20
-0.4330708661417324
 11
-1.090594125072662
 21
-0.3989753778037652
 72
     1
 10
-1.090594125072662
 20
-0.3989753778037652
 11
-1.070909085702582
 21
-0.4330708661417324
 72
     1
 10
-1.070909085702582
 20
-0.4330708661417324
 11
-1.051224046332504
 21
-0.3989753778037652
 72
     1
 10
-1.051224046332504
 20
-0.3989753778037652
 11
-1.031539006962426
 21
-0.4330708661417324
 72
     1
 10
-1.031539006962426
 20
-0.4330708661417324
 11
-1.011853967592347
 21
-0.3989753778037652
 72
     1
 10
-1.011853967592347
 20
-0.3989753778037652
 11
-0.9921689282222679
 21
-0.4330708661417324
 72
     1
 10
-0.9921689282222679
 20
-0.4330708661417324
 11
-0.9730271959388032
 21
-0.3999164132818929
 72
     1
 10
-0.9730271959388032
 20
-0.3999164132818929
 11
-0.9730271959388032
 21
-0.2064999999999992
 72
     1
 10
-0.9730271959388032
 20
-0.2064999999999992
 11
-0.9430271959388026
 21
-0.1764999999999958
 72
     1
 10
-0.9430271959388026
 20
-0.1764999999999958
 11
-0.9030271959388028
 21
-0.1764999999999958
 72
     1
 10
-0.9030271959388028
 20
-0.1764999999999958
 11
-0.9030271959388028
 21
-0.4760000000000019
 97
       36
330
86
330
82
330
70
330
A2
330
A1
330
A0
330
9F
330
9E
330
9D
330
9C
330
9B
330
9A
330
99
330
8E
330
8D
330
8C
330
7D
330
7E
330
79
330
7A
330
75
330
76
330
71
330
72
330
D5
330
6F
330
B1
330
A9
330
B3
330
AA
330
AD
330
AE
330
B4
330
A5
330
B2
330
A6
 75
     1
 76
     0
 52
45.0
 41
0.04
 77
     0
 78
     1
 53
45.0
 43
0.0
 44
0.0
 45
-0.0282842712474619
 46
0.0282842712474619
 79
     0
 98
        1
 10
0.0
 20
0.0
  0
ENDBLK
  5
3F
330
3D
100
AcDbEntity
  8
0
100
AcDbBlockEnd
  0
BLOCK
  5
41
330
40
100
AcDbEntity
  8
0
100
AcDbBlockBegin
  2
SILCA_SLEEVE
 70
     0
 71
     0
 10
0.20847867373033
 20
8.36309200462985
 30
0.0
  3
SILCA_SLEEVE
  1

  0
LINE
  5
DA
102
{ACAD_REACTORS
330
FA
330
FA
102
}
330
40
100
AcDbEntity
  8
1
  6
Continuous
 62
     6
100
AcDbLine
 10
0.07362047244094
 20
0.27964566929134
 30
0.0
 11
0.1
 21
0.27964566929134
 31
0.0
  0
LINE
  5
DB
102
{ACAD_REACTORS
330
FA
330
FA
102
}
330
40
100
AcDbEntity
  8
1
  6
Continuous
 62
     6
100
AcDbLine
 10
0.07362047244094
 20
0.35464566929133
 30
0.0
 11
0.07362047244094
 21
0.27964566929134
 31
0.0
  0
LINE
  5
DC
102
{ACAD_REACTORS
330
FA
330
FA
102
}
330
40
100
AcDbEntity
  8
1
  6
Continuous
 62
     6
100
AcDbLine
 10
0.07362047244094
 20
0.35464566929133
 30
0.0
 11
0.14
 21
0.35464566929133
 31
0.0
  0
LINE
  5
DD
102
{ACAD_REACTORS
330
FA
330
FA
102
}
330
40
100
AcDbEntity
  8
1
  6
Continuous
 62
     6
100
AcDbLine
 10
0.1
 20
0.33464566929134
 30
0.0
 11
0.14
 21
0.33464566929134
 31
0.0
  0
LINE
  5
DE
102
{ACAD_REACTORS
330
FA
330
FA
102
}
330
40
100
AcDbEntity
  8
1
  6
Continuous
 62
     6
100
AcDbLine
 10
0.1
 20
0.33464566929134
 30
0.0
 11
0.1
 21
0.27964566929134
 31
0.0
  0
LINE
  5
DF
102
{ACAD_REACTORS
330
FA
330
FA
102
}
330
40
100
AcDbEntity
  8
1
  6
Continuous
 62
     6
100
AcDbLine
 10
0.14
 20
0.35464566929133
 30
0.0
 11
0.14
 21
0.33464566929134
 31
0.0
  0
LINE
  5
E0
102
{ACAD_REACTORS
330
FC
330
FC
102
}
330
40
100
AcDbEntity
  8
1
  6
Continuous
 62
     6
100
AcDbLine
 10
-1.9260271959388
 20
0.27964566929134
 30
0.0
 11
-1.89964766837975
 21
0.27964566929134
 31
0.0
  0
LINE
  5
E1
102
{ACAD_REACTORS
330
FC
330
FC
102
}
330
40
100
AcDbEntity
  8
1
  6
Continuous
 62
     6
100
AcDbLine
 10
-1.89964766837975
 20
0.27964566929134
 30
0.0
 11
-1.89964766837975
 21
0.35464566929133
 31
0.0
  0
LINE
  5
E2
102
{ACAD_REACTORS
330
FC
330
FC
102
}
330
40
100
AcDbEntity
  8
1
  6
Continuous
 62
     6
100
AcDbLine
 10
-1.9460271959388
 20
0.35464566929133
 30
0.0
 11
-1.89964766837975
 21
0.35464566929133
 31
0.0
  0
LINE
  5
E3
102
{ACAD_REACTORS
330
FC
330
FC
102
}
330
40
100
AcDbEntity
  8
1
  6
Continuous
 62
     6
100
AcDbLine
 10
-1.9460271959388
 20
0.33464566929134
 30
0.0
 11
-1.9260271959388
 21
0.33464566929134
 31
0.0
  0
LINE
  5
E4
102
{ACAD_REACTORS
330
FC
330
FC
102
}
330
40
100
AcDbEntity
  8
1
  6
Continuous
 62
     6
100
AcDbLine
 10
-1.9260271959388
 20
0.27964566929134
 30
0.0
 11
-1.9260271959388
 21
0.33464566929134
 31
0.0
  0
LINE
  5
E5
102
{ACAD_REACTORS
330
FC
330
FC
102
}
330
40
100
AcDbEntity
  8
1
  6
Continuous
 62
     6
100
AcDbLine
 10
-1.9460271959388
 20
0.33464566929134
 30
0.0
 11
-1.9460271959388
 21
0.35464566929133
 31
0.0
  0
LINE
  5
E6
102
{ACAD_REACTORS
330
FB
330
FB
102
}
330
40
100
AcDbEntity
  8
1
  6
Continuous
 62
     6
100
AcDbLine
 10
-1.7060271959388
 20
0.35464566929133
 30
0.0
 11
-1.7060271959388
 21
0.33464566929134
 31
0.0
  0
LINE
  5
E7
102
{ACAD_REACTORS
330
FB
330
FB
102
}
330
40
100
AcDbEntity
  8
1
  6
Continuous
 62
     6
100
AcDbLine
 10
-1.7260271959388
 20
0.33464566929134
 30
0.0
 11
-1.7260271959388
 21
0.27964566929134
 31
0.0
  0
LINE
  5
E8
102
{ACAD_REACTORS
330
FB
330
FB
102
}
330
40
100
AcDbEntity
  8
1
  6
Continuous
 62
     6
100
AcDbLine
 10
-1.7260271959388
 20
0.33464566929134
 30
0.0
 11
-1.7060271959388
 21
0.33464566929134
 31
0.0
  0
LINE
  5
E9
102
{ACAD_REACTORS
330
FB
330
FB
102
}
330
40
100
AcDbEntity
  8
1
  6
Continuous
 62
     6
100
AcDbLine
 10
-1.75240672349786
 20
0.35464566929133
 30
0.0
 11
-1.7060271959388
 21
0.35464566929133
 31
0.0
  0
LINE
  5
EA
102
{ACAD_REACTORS
330
FB
330
FB
102
}
330
40
100
AcDbEntity
  8
1
  6
Continuous
 62
     6
100
AcDbLine
 10
-1.75240672349786
 20
0.35464566929133
 30
0.0
 11
-1.75240672349786
 21
0.27964566929134
 31
0.0
  0
LINE
  5
EB
102
{ACAD_REACTORS
330
FB
330
FB
102
}
330
40
100
AcDbEntity
  8
1
  6
Continuous
 62
     6
100
AcDbLine
 10
-1.75240672349786
 20
0.27964566929134
 30
0.0
 11
-1.7260271959388
 21
0.27964566929134
 31
0.0
  0
LINE
  5
EC
102
{ACAD_REACTORS
330
FD
330
FD
102
}
330
40
100
AcDbEntity
  8
1
  6
Continuous
 62
     6
100
AcDbLine
 10
-0.14
 20
0.33464566929134
 30
0.0
 11
-0.14
 21
0.35464566929133
 31
0.0
  0
LINE
  5
ED
102
{ACAD_REACTORS
330
FD
330
FD
102
}
330
40
100
AcDbEntity
  8
1
  6
Continuous
 62
     6
100
AcDbLine
 10
-0.1
 20
0.27964566929134
 30
0.0
 11
-0.1
 21
0.33464566929134
 31
0.0
  0
LINE
  5
EE
102
{ACAD_REACTORS
330
FD
330
FD
102
}
330
40
100
AcDbEntity
  8
1
  6
Continuous
 62
     6
100
AcDbLine
 10
-0.14
 20
0.33464566929134
 30
0.0
 11
-0.1
 21
0.33464566929134
 31
0.0
  0
LINE
  5
EF
102
{ACAD_REACTORS
330
FD
330
FD
102
}
330
40
100
AcDbEntity
  8
1
  6
Continuous
 62
     6
100
AcDbLine
 10
-0.14
 20
0.35464566929133
 30
0.0
 11
-0.07362047244095
 21
0.35464566929133
 31
0.0
  0
LINE
  5
F0
102
{ACAD_REACTORS
330
FD
330
FD
102
}
330
40
100
AcDbEntity
  8
1
  6
Continuous
 62
     6
100
AcDbLine
 10
-0.07362047244095
 20
0.27964566929134
 30
0.0
 11
-0.07362047244095
 21
0.35464566929133
 31
0.0
  0
LINE
  5
F1
102
{ACAD_REACTORS
330
FD
330
FD
102
}
330
40
100
AcDbEntity
  8
1
  6
Continuous
 62
     6
100
AcDbLine
 10
-0.1
 20
0.27964566929134
 30
0.0
 11
-0.07362047244095
 21
0.27964566929134
 31
0.0
  0
LINE
  5
F2
330
40
100
AcDbEntity
  8
1
  6
Continuous
 62
     6
100
AcDbLine
 10
-0.07362047244095
 20
0.27964566929134
 30
0.0
 11
-0.07
 21
0.27964566929134
 31
0.0
  0
LINE
  5
F3
330
40
100
AcDbEntity
  8
1
  6
Continuous
 62
     6
100
AcDbLine
 10
0.07362047244094
 20
0.27964566929134
 30
0.0
 11
0.07
 21
0.27964566929134
 31
0.0
  0
LINE
  5
F4
330
40
100
AcDbEntity
  8
1
  6
Continuous
 62
     6
100
AcDbLine
 10
0.07362047244094
 20
0.35464566929133
 30
0.0
 11
0.07
 21
0.35464566929133
 31
0.0
  0
LINE
  5
F5
330
40
100
AcDbEntity
  8
1
  6
Continuous
 62
     6
100
AcDbLine
 10
-0.07362047244095
 20
0.35464566929133
 30
0.0
 11
-0.07
 21
0.35464566929133
 31
0.0
  0
LINE
  5
F6
330
40
100
AcDbEntity
  8
1
  6
Continuous
 62
     6
100
AcDbLine
 10
-1.89964766837975
 20
0.27964566929134
 30
0.0
 11
-1.8960271959388
 21
0.27964566929134
 31
0.0
  0
LINE
  5
F7
330
40
100
AcDbEntity
  8
1
  6
Continuous
 62
     6
100
AcDbLine
 10
-1.75240672349786
 20
0.27964566929134
 30
0.0
 11
-1.7560271959388
 21
0.27964566929134
 31
0.0
  0
LINE
  5
F8
330
40
100
AcDbEntity
  8
1
  6
Continuous
 62
     6
100
AcDbLine
 10
-1.75240672349786
 20
0.35464566929133
 30
0.0
 11
-1.7560271959388
 21
0.35464566929133
 31
0.0
  0
LINE
  5
F9
330
40
100
AcDbEntity
  8
1
  6
Continuous
 62
     6
100
AcDbLine
 10
-1.89964766837975
 20
0.35464566929133
 30
0.0
 11
-1.8960271959388
 21
0.35464566929133
 31
0.0
  0
HATCH
  5
FA
330
40
100
AcDbEntity
  8
1
  6
Continuous
 62
     6
100
AcDbHatch
 10
0.0
 20
0.0
 30
0.0
210
0.0
220
0.0
230
1.0
  2
_USER
 70
     0
 71
     1
 91
        1
 92
        1
 93
        6
 72
     1
 10
0.1399999999999996
 20
0.3346456692913353
 11
0.0999999999999996
 21
0.3346456692913353
 72
     1
 10
0.0999999999999996
 20
0.3346456692913353
 11
0.0999999999999996
 21
0.2796456692913358
 72
     1
 10
0.0999999999999996
 20
0.2796456692913358
 11
0.073620472440945
 21
0.2796456692913358
 72
     1
 10
0.073620472440945
 20
0.2796456692913358
 11
0.073620472440945
 21
0.3546456692913322
 72
     1
 10
0.073620472440945
 20
0.3546456692913322
 11
0.1399999999999996
 21
0.3546456692913322
 72
     1
 10
0.1399999999999996
 20
0.3546456692913322
 11
0.1399999999999996
 21
0.3346456692913353
 97
        6
330
DC
330
DB
330
DA
330
DE
330
DD
330
DF
 75
     1
 76
     0
 52
45.0
 41
0.01
 77
     0
 78
     1
 53
45.0
 43
0.0
 44
0.0
 45
-0.0070710678118655
 46
0.0070710678118655
 79
     0
 98
        1
 10
0.0
 20
0.0
  0
HATCH
  5
FB
330
40
100
AcDbEntity
  8
1
  6
Continuous
 62
     6
100
AcDbHatch
 10
0.0
 20
0.0
 30
0.0
210
0.0
220
0.0
230
1.0
  2
_USER
 70
     0
 71
     1
 91
        1
 92
        1
 93
        6
 72
     1
 10
-1.706027195938802
 20
0.3346456692913353
 11
-1.726027195938802
 21
0.3346456692913353
 72
     1
 10
-1.726027195938802
 20
0.3346456692913353
 11
-1.726027195938802
 21
0.2796456692913358
 72
     1
 10
-1.726027195938802
 20
0.2796456692913358
 11
-1.752406723497857
 21
0.2796456692913358
 72
     1
 10
-1.752406723497857
 20
0.2796456692913358
 11
-1.752406723497857
 21
0.3546456692913322
 72
     1
 10
-1.752406723497857
 20
0.3546456692913322
 11
-1.706027195938802
 21
0.3546456692913322
 72
     1
 10
-1.706027195938802
 20
0.3546456692913322
 11
-1.706027195938802
 21
0.3346456692913353
 97
        6
330
E9
330
EA
330
EB
330
E7
330
E8
330
E6
 75
     1
 76
     0
 52
45.0
 41
0.01
 77
     0
 78
     1
 53
45.0
 43
0.0
 44
0.0
 45
-0.0070710678118655
 46
0.0070710678118655
 79
     0
 98
        1
 10
0.0
 20
0.0
  0
HATCH
  5
FC
330
40
100
AcDbEntity
  8
1
  6
Continuous
 62
     6
100
AcDbHatch
 10
0.0
 20
0.0
 30
0.0
210
0.0
220
0.0
230
1.0
  2
_USER
 70
     0
 71
     1
 91
        1
 92
        1
 93
        6
 72
     1
 10
-1.946027195938802
 20
0.3546456692913322
 11
-1.899647668379747
 21
0.3546456692913322
 72
     1
 10
-1.899647668379747
 20
0.3546456692913322
 11
-1.899647668379747
 21
0.2796456692913358
 72
     1
 10
-1.899647668379747
 20
0.2796456692913358
 11
-1.926027195938802
 21
0.2796456692913358
 72
     1
 10
-1.926027195938802
 20
0.2796456692913358
 11
-1.926027195938802
 21
0.3346456692913353
 72
     1
 10
-1.926027195938802
 20
0.3346456692913353
 11
-1.946027195938802
 21
0.3346456692913353
 72
     1
 10
-1.946027195938802
 20
0.3346456692913353
 11
-1.946027195938802
 21
0.3546456692913322
 97
        6
330
E2
330
E1
330
E0
330
E4
330
E3
330
E5
 75
     1
 76
     0
 52
45.0
 41
0.01
 77
     0
 78
     1
 53
45.0
 43
0.0
 44
0.0
 45
-0.0070710678118655
 46
0.0070710678118655
 79
     0
 98
        1
 10
0.0
 20
0.0
  0
HATCH
  5
FD
330
40
100
AcDbEntity
  8
1
  6
Continuous
 62
     6
100
AcDbHatch
 10
0.0
 20
0.0
 30
0.0
210
0.0
220
0.0
230
1.0
  2
_USER
 70
     0
 71
     1
 91
        1
 92
        1
 93
        6
 72
     1
 10
-0.1400000000000004
 20
0.3546456692913322
 11
-0.0736204724409457
 21
0.3546456692913322
 72
     1
 10
-0.0736204724409457
 20
0.3546456692913322
 11
-0.0736204724409457
 21
0.2796456692913358
 72
     1
 10
-0.0736204724409457
 20
0.2796456692913358
 11
-0.1000000000000002
 21
0.2796456692913358
 72
     1
 10
-0.1000000000000002
 20
0.2796456692913358
 11
-0.1000000000000002
 21
0.3346456692913353
 72
     1
 10
-0.1000000000000002
 20
0.3346456692913353
 11
-0.1400000000000004
 21
0.3346456692913353
 72
     1
 10
-0.1400000000000004
 20
0.3346456692913353
 11
-0.1400000000000004
 21
0.3546456692913322
 97
        6
330
EF
330
F0
330
F1
330
ED
330
EE
330
EC
 75
     1
 76
     0
 52
45.0
 41
0.01
 77
     0
 78
     1
 53
45.0
 43
0.0
 44
0.0
 45
-0.0070710678118655
 46
0.0070710678118655
 79
     0
 98
        1
 10
0.0
 20
0.0
  0
ENDBLK
  5
42
330
40
100
AcDbEntity
  8
0
100
AcDbBlockEnd
  0
BLOCK
  5
44
330
43
100
AcDbEntity
  8
0
100
AcDbBlockBegin
  2
SILCA_CHUCK_RND
 70
     0
 71
     0
 10
0.13736125126135
 20
8.67381908364567
 30
0.0
  3
SILCA_CHUCK_RND
  1

  0
LINE
  5
FE
330
43
100
AcDbEntity
  8
1
  6
Center
 62
     2
100
AcDbLine
 10
-0.8636440420262
 20
0.0
 30
0.0
 11
-2.34324386279111
 21
0.0
 31
0.0
  0
LINE
  5
FF
102
{ACAD_REACTORS
330
193
330
193
102
}
330
43
100
AcDbEntity
  8
1
  6
Continuous
 62
     7
100
AcDbLine
 10
-1.7240271959388
 20
0.33464566929134
 30
0.0
 11
-1.55266773175464
 21
0.33464566929134
 31
0.0
  0
LINE
  5
100
330
43
100
AcDbEntity
  8
1
  6
Continuous
 62
     2
100
AcDbLine
 10
2.1083800323552
 20
0.32043356801414
 30
0.0
 11
2.1083800323552
 21
-0.32008429863497
 31
0.0
  0
LINE
  5
101
330
43
100
AcDbEntity
  8
1
  6
Continuous
 62
     2
100
AcDbLine
 10
1.54162967282017
 20
0.3132367380518
 30
0.0
 11
1.54162967282017
 21
-0.32008429863497
 31
0.0
  0
LINE
  5
102
102
{ACAD_REACTORS
330
192
330
192
102
}
330
43
100
AcDbEntity
  8
1
  6
Continuous
 62
     7
100
AcDbLine
 10
-2.28744451877345
 20
-0.17309199752205
 30
0.0
 11
-2.28744451877345
 21
-0.1900906290928
 31
0.0
  0
LINE
  5
103
330
43
100
AcDbEntity
  8
1
  6
Continuous
 62
     7
100
AcDbLine
 10
-2.28744451877345
 20
0.1900906290928
 30
0.0
 11
-2.28744451877345
 21
-0.17309199752205
 31
0.0
  0
LINE
  5
104
102
{ACAD_REACTORS
330
191
330
191
102
}
330
43
100
AcDbEntity
  8
1
  6
Continuous
 62
     7
100
AcDbLine
 10
2.22439410696798
 20
0.37401574803149
 30
0.0
 11
2.22439410696798
 21
-0.3740157480315
 31
0.0
  0
LINE
  5
105
102
{ACAD_REACTORS
330
191
330
191
102
}
330
43
100
AcDbEntity
  8
1
  6
Continuous
 62
     7
100
AcDbLine
 10
2.12596891011759
 20
0.37401574803149
 30
0.0
 11
2.12596891011759
 21
-0.3740157480315
 31
0.0
  0
LINE
  5
106
330
43
100
AcDbEntity
  8
1
  6
Continuous
 62
     7
100
AcDbLine
 10
1.53136993146004
 20
-0.34407430662109
 30
0.0
 11
1.4888337409237
 21
-0.41375691095637
 31
0.0
  0
LINE
  5
107
330
43
100
AcDbEntity
  8
1
  6
Continuous
 62
     7
100
AcDbLine
 10
2.1193291552642
 20
0.34923584556885
 30
0.0
 11
2.12596891011759
 21
0.37401574803149
 31
0.0
  0
LINE
  5
108
330
43
100
AcDbEntity
  8
1
  6
Continuous
 62
     7
100
AcDbLine
 10
1.54849059545494
 20
0.33464566929134
 30
0.0
 11
2.10031486734512
 21
0.33464566929134
 31
0.0
  0
LINE
  5
109
102
{ACAD_REACTORS
330
191
330
191
102
}
330
43
100
AcDbEntity
  8
1
  6
Continuous
 62
     7
100
AcDbLine
 10
2.22439410696798
 20
0.37401574803149
 30
0.0
 11
2.12596891011759
 21
0.37401574803149
 31
0.0
  0
LINE
  5
10A
102
{ACAD_REACTORS
330
191
330
191
102
}
330
43
100
AcDbEntity
  8
1
  6
Continuous
 62
     7
100
AcDbLine
 10
2.22439410696798
 20
-0.3740157480315
 30
0.0
 11
2.12596891011759
 21
-0.3740157480315
 31
0.0
  0
LINE
  5
10B
330
43
100
AcDbEntity
  8
1
  6
Continuous
 62
     7
100
AcDbLine
 10
1.54817192515688
 20
-0.33464566929134
 30
0.0
 11
2.10031486734512
 21
-0.33464566929134
 31
0.0
  0
LINE
  5
10C
330
43
100
AcDbEntity
  8
1
  6
Continuous
 62
     7
100
AcDbLine
 10
2.12596891011759
 20
-0.3740157480315
 30
0.0
 11
2.1193291552642
 21
-0.34923584556885
 31
0.0
  0
LINE
  5
10D
330
43
100
AcDbEntity
  8
1
  6
Continuous
 62
     7
100
AcDbLine
 10
2.28344922507822
 20
-0.1900906290928
 30
0.0
 11
2.28344922507822
 21
0.1900906290928
 31
0.0
  0
LINE
  5
10E
330
43
100
AcDbEntity
  8
1
  6
Continuous
 62
     7
100
AcDbLine
 10
-2.08520661719242
 20
-0.17823587111882
 30
0.0
 11
-2.08520661719242
 21
0.17823587111882
 31
0.0
  0
LINE
  5
10F
330
43
100
AcDbEntity
  8
1
  6
Continuous
 62
     7
100
AcDbLine
 10
-2.08520661719242
 20
-0.19513317562786
 30
0.0
 11
-2.08520661719242
 21
-0.17823587111882
 31
0.0
  0
LINE
  5
110
102
{ACAD_REACTORS
330
192
330
192
102
}
330
43
100
AcDbEntity
  8
1
  6
Continuous
 62
     7
100
AcDbLine
 10
-1.14571223530888
 20
-0.4
 30
0.0
 11
-1.1260271959388
 21
-0.38031496062992
 31
0.0
  0
LINE
  5
111
102
{ACAD_REACTORS
330
193
330
193
102
}
330
43
100
AcDbEntity
  8
1
  6
Continuous
 62
     7
100
AcDbLine
 10
-1.14571223530888
 20
0.4
 30
0.0
 11
-1.1260271959388
 21
0.38031496062992
 31
0.0
  0
LINE
  5
112
102
{ACAD_REACTORS
330
192
330
192
102
}
330
43
100
AcDbEntity
  8
1
  6
Continuous
 62
     7
100
AcDbLine
 10
-1.49413743215928
 20
-0.41602312197275
 30
0.0
 11
-1.53534722367895
 21
-0.34464566929134
 31
0.0
  0
LINE
  5
113
102
{ACAD_REACTORS
330
192
330
192
102
}
330
43
100
AcDbEntity
  8
1
  6
Continuous
 62
     7
100
AcDbLine
 10
-2.08017893911185
 20
-0.18577621169228
 30
0.0
 11
-2.08520661719242
 21
-0.19513317562786
 31
0.0
  0
LINE
  5
114
102
{ACAD_REACTORS
330
194
330
194
102
}
330
43
100
AcDbEntity
  8
1
  6
Continuous
 62
     7
100
AcDbLine
 10
-2.09063691466784
 20
0.1695483929972
 30
0.0
 11
-2.10469602177211
 21
0.19571366373115
 31
0.0
  0
LINE
  5
115
102
{ACAD_REACTORS
330
192
330
192
102
}
330
43
100
AcDbEntity
  8
1
  6
Continuous
 62
     7
100
AcDbLine
 10
-2.12338699977464
 20
-0.34946928838929
 30
0.0
 11
-2.12996420381282
 21
-0.3740157480315
 31
0.0
  0
LINE
  5
116
102
{ACAD_REACTORS
330
192
330
192
102
}
330
43
100
AcDbEntity
  8
1
  6
Continuous
 62
     7
100
AcDbLine
 10
-2.10406848324886
 20
-0.33464566929134
 30
0.0
 11
-1.55266773175464
 21
-0.33464566929134
 31
0.0
  0
LINE
  5
117
102
{ACAD_REACTORS
330
192
330
192
102
}
330
43
100
AcDbEntity
  8
1
  6
Continuous
 62
     7
100
AcDbLine
 10
-2.12996420381282
 20
-0.3740157480315
 30
0.0
 11
-2.22838940066321
 21
-0.3740157480315
 31
0.0
  0
LINE
  5
118
102
{ACAD_REACTORS
330
192
330
192
102
}
330
43
100
AcDbEntity
  8
1
  6
Continuous
 62
     7
100
AcDbLine
 10
-1.95279884948211
 20
-0.29527559055118
 30
0.0
 11
-1.26775947940337
 21
-0.29527559055118
 31
0.0
  0
LINE
  5
119
102
{ACAD_REACTORS
330
194
330
194
102
}
330
43
100
AcDbEntity
  8
1
  6
Continuous
 62
     7
100
AcDbLine
 10
-2.12996420381282
 20
0.37401574803149
 30
0.0
 11
-2.22838940066321
 21
0.37401574803149
 31
0.0
  0
LINE
  5
11A
102
{ACAD_REACTORS
330
194
330
194
102
}
330
43
100
AcDbEntity
  8
1
  6
Continuous
 62
     7
100
AcDbLine
 10
-2.10406848324886
 20
0.33464566929134
 30
0.0
 11
-1.9280271959388
 21
0.33464566929134
 31
0.0
  0
LINE
  5
11B
102
{ACAD_REACTORS
330
194
330
194
102
}
330
43
100
AcDbEntity
  8
1
  6
Continuous
 62
     7
100
AcDbLine
 10
-2.12996420381282
 20
0.37401574803149
 30
0.0
 11
-2.12338699977464
 21
0.34946928838928
 31
0.0
  0
LINE
  5
11C
102
{ACAD_REACTORS
330
192
330
192
102
}
330
43
100
AcDbEntity
  8
1
  6
Continuous
 62
     7
100
AcDbLine
 10
-1.22838940066321
 20
-0.4
 30
0.0
 11
-1.22838940066321
 21
-0.43307086614173
 31
0.0
  0
LINE
  5
11D
102
{ACAD_REACTORS
330
192
330
192
102
}
330
43
100
AcDbEntity
  8
1
  6
Continuous
 62
     7
100
AcDbLine
 10
-1.24807444003329
 20
-0.39897537780377
 30
0.0
 11
-1.22838940066321
 21
-0.43307086614173
 31
0.0
  0
LINE
  5
11E
102
{ACAD_REACTORS
330
192
330
192
102
}
330
43
100
AcDbEntity
  8
1
  6
Continuous
 62
     7
100
AcDbLine
 10
-1.49413743215928
 20
-0.41602312197275
 30
0.0
 11
-1.48429491247424
 21
-0.39897537780377
 31
0.0
  0
LINE
  5
11F
102
{ACAD_REACTORS
330
192
330
192
102
}
330
43
100
AcDbEntity
  8
1
  6
Continuous
 62
     7
100
AcDbLine
 10
-1.48429491247424
 20
-0.39897537780377
 30
0.0
 11
-1.46460987310416
 21
-0.43307086614173
 31
0.0
  0
LINE
  5
120
102
{ACAD_REACTORS
330
192
330
192
102
}
330
43
100
AcDbEntity
  8
1
  6
Continuous
 62
     7
100
AcDbLine
 10
-1.46460987310416
 20
-0.43307086614173
 30
0.0
 11
-1.44492483373408
 21
-0.39897537780377
 31
0.0
  0
LINE
  5
121
102
{ACAD_REACTORS
330
192
330
192
102
}
330
43
100
AcDbEntity
  8
1
  6
Continuous
 62
     7
100
AcDbLine
 10
-1.44492483373408
 20
-0.39897537780377
 30
0.0
 11
-1.425239794364
 21
-0.43307086614173
 31
0.0
  0
LINE
  5
122
102
{ACAD_REACTORS
330
193
330
193
102
}
330
43
100
AcDbEntity
  8
1
  6
Continuous
 62
     7
100
AcDbLine
 10
-1.53534722367895
 20
0.34464566929134
 30
0.0
 11
-1.48429491247424
 21
0.43307086614173
 31
0.0
  0
LINE
  5
123
102
{ACAD_REACTORS
330
193
330
193
102
}
330
43
100
AcDbEntity
  8
1
  6
Continuous
 62
     7
100
AcDbLine
 10
-1.48429491247424
 20
0.43307086614173
 30
0.0
 11
-1.46460987310416
 21
0.39897537780376
 31
0.0
  0
LINE
  5
124
102
{ACAD_REACTORS
330
193
330
193
102
}
330
43
100
AcDbEntity
  8
1
  6
Continuous
 62
     7
100
AcDbLine
 10
-1.46460987310416
 20
0.39897537780376
 30
0.0
 11
-1.44492483373408
 21
0.43307086614173
 31
0.0
  0
LINE
  5
125
102
{ACAD_REACTORS
330
193
330
193
102
}
330
43
100
AcDbEntity
  8
1
  6
Continuous
 62
     7
100
AcDbLine
 10
-1.44492483373408
 20
0.43307086614173
 30
0.0
 11
-1.425239794364
 21
0.39897537780376
 31
0.0
  0
LINE
  5
126
102
{ACAD_REACTORS
330
192
330
192
102
}
330
43
100
AcDbEntity
  8
1
  6
Continuous
 62
     7
100
AcDbLine
 10
-1.22838940066321
 20
-0.4
 30
0.0
 11
-1.14571223530888
 21
-0.4
 31
0.0
  0
LINE
  5
127
102
{ACAD_REACTORS
330
193
330
193
102
}
330
43
100
AcDbEntity
  8
1
  6
Continuous
 62
     7
100
AcDbLine
 10
-1.22838940066321
 20
0.39897537780376
 30
0.0
 11
-1.22838940066321
 21
0.4
 31
0.0
  0
LINE
  5
128
102
{ACAD_REACTORS
330
193
330
193
102
}
330
43
100
AcDbEntity
  8
1
  6
Continuous
 62
     7
100
AcDbLine
 10
-1.14571223530888
 20
0.4
 30
0.0
 11
-1.22838940066321
 21
0.4
 31
0.0
  0
LINE
  5
129
102
{ACAD_REACTORS
330
192
330
192
102
}
330
43
100
AcDbEntity
  8
1
  6
Continuous
 62
     7
100
AcDbLine
 10
-1.425239794364
 20
-0.43307086614173
 30
0.0
 11
-1.40555475499392
 21
-0.39897537780377
 31
0.0
  0
LINE
  5
12A
102
{ACAD_REACTORS
330
192
330
192
102
}
330
43
100
AcDbEntity
  8
1
  6
Continuous
 62
     7
100
AcDbLine
 10
-1.40555475499392
 20
-0.39897537780377
 30
0.0
 11
-1.38586971562384
 21
-0.43307086614173
 31
0.0
  0
LINE
  5
12B
102
{ACAD_REACTORS
330
192
330
192
102
}
330
43
100
AcDbEntity
  8
1
  6
Continuous
 62
     7
100
AcDbLine
 10
-1.38586971562384
 20
-0.43307086614173
 30
0.0
 11
-1.36618467625376
 21
-0.39897537780377
 31
0.0
  0
LINE
  5
12C
102
{ACAD_REACTORS
330
192
330
192
102
}
330
43
100
AcDbEntity
  8
1
  6
Continuous
 62
     7
100
AcDbLine
 10
-1.36618467625376
 20
-0.39897537780377
 30
0.0
 11
-1.34649963688369
 21
-0.43307086614173
 31
0.0
  0
LINE
  5
12D
102
{ACAD_REACTORS
330
192
330
192
102
}
330
43
100
AcDbEntity
  8
1
  6
Continuous
 62
     7
100
AcDbLine
 10
-1.34649963688369
 20
-0.43307086614173
 30
0.0
 11
-1.32681459751361
 21
-0.39897537780377
 31
0.0
  0
LINE
  5
12E
102
{ACAD_REACTORS
330
192
330
192
102
}
330
43
100
AcDbEntity
  8
1
  6
Continuous
 62
     7
100
AcDbLine
 10
-1.32681459751361
 20
-0.39897537780377
 30
0.0
 11
-1.30712955814353
 21
-0.43307086614173
 31
0.0
  0
LINE
  5
12F
102
{ACAD_REACTORS
330
192
330
192
102
}
330
43
100
AcDbEntity
  8
1
  6
Continuous
 62
     7
100
AcDbLine
 10
-1.30712955814353
 20
-0.43307086614173
 30
0.0
 11
-1.28744451877345
 21
-0.39897537780377
 31
0.0
  0
LINE
  5
130
102
{ACAD_REACTORS
330
192
330
192
102
}
330
43
100
AcDbEntity
  8
1
  6
Continuous
 62
     7
100
AcDbLine
 10
-1.28744451877345
 20
-0.39897537780377
 30
0.0
 11
-1.26775947940337
 21
-0.43307086614173
 31
0.0
  0
LINE
  5
131
102
{ACAD_REACTORS
330
192
330
192
102
}
330
43
100
AcDbEntity
  8
1
  6
Continuous
 62
     7
100
AcDbLine
 10
-1.26775947940337
 20
-0.43307086614173
 30
0.0
 11
-1.24807444003329
 21
-0.39897537780377
 31
0.0
  0
LINE
  5
132
102
{ACAD_REACTORS
330
193
330
193
102
}
330
43
100
AcDbEntity
  8
1
  6
Continuous
 62
     7
100
AcDbLine
 10
-1.425239794364
 20
0.39897537780376
 30
0.0
 11
-1.40555475499392
 21
0.43307086614173
 31
0.0
  0
LINE
  5
133
102
{ACAD_REACTORS
330
193
330
193
102
}
330
43
100
AcDbEntity
  8
1
  6
Continuous
 62
     7
100
AcDbLine
 10
-1.40555475499392
 20
0.43307086614173
 30
0.0
 11
-1.38586971562384
 21
0.39897537780376
 31
0.0
  0
LINE
  5
134
102
{ACAD_REACTORS
330
193
330
193
102
}
330
43
100
AcDbEntity
  8
1
  6
Continuous
 62
     7
100
AcDbLine
 10
-1.38586971562384
 20
0.39897537780376
 30
0.0
 11
-1.36618467625376
 21
0.43307086614173
 31
0.0
  0
LINE
  5
135
102
{ACAD_REACTORS
330
193
330
193
102
}
330
43
100
AcDbEntity
  8
1
  6
Continuous
 62
     7
100
AcDbLine
 10
-1.36618467625376
 20
0.43307086614173
 30
0.0
 11
-1.34649963688369
 21
0.39897537780376
 31
0.0
  0
LINE
  5
136
102
{ACAD_REACTORS
330
193
330
193
102
}
330
43
100
AcDbEntity
  8
1
  6
Continuous
 62
     7
100
AcDbLine
 10
-1.34649963688369
 20
0.39897537780376
 30
0.0
 11
-1.32681459751361
 21
0.43307086614173
 31
0.0
  0
LINE
  5
137
102
{ACAD_REACTORS
330
193
330
193
102
}
330
43
100
AcDbEntity
  8
1
  6
Continuous
 62
     7
100
AcDbLine
 10
-1.32681459751361
 20
0.43307086614173
 30
0.0
 11
-1.30712955814353
 21
0.39897537780376
 31
0.0
  0
LINE
  5
138
102
{ACAD_REACTORS
330
193
330
193
102
}
330
43
100
AcDbEntity
  8
1
  6
Continuous
 62
     7
100
AcDbLine
 10
-1.30712955814353
 20
0.39897537780376
 30
0.0
 11
-1.28744451877345
 21
0.43307086614173
 31
0.0
  0
LINE
  5
139
102
{ACAD_REACTORS
330
193
330
193
102
}
330
43
100
AcDbEntity
  8
1
  6
Continuous
 62
     7
100
AcDbLine
 10
-1.28744451877345
 20
0.43307086614173
 30
0.0
 11
-1.26775947940337
 21
0.39897537780376
 31
0.0
  0
LINE
  5
13A
102
{ACAD_REACTORS
330
193
330
193
102
}
330
43
100
AcDbEntity
  8
1
  6
Continuous
 62
     7
100
AcDbLine
 10
-1.26775947940337
 20
0.39897537780376
 30
0.0
 11
-1.24807444003329
 21
0.43307086614173
 31
0.0
  0
LINE
  5
13B
102
{ACAD_REACTORS
330
193
330
193
102
}
330
43
100
AcDbEntity
  8
1
  6
Continuous
 62
     7
100
AcDbLine
 10
-1.24807444003329
 20
0.43307086614173
 30
0.0
 11
-1.22838940066321
 21
0.39897537780376
 31
0.0
  0
LINE
  5
13C
102
{ACAD_REACTORS
330
192
330
192
102
}
330
43
100
AcDbEntity
  8
1
  6
Continuous
 62
     7
100
AcDbLine
 10
-1.1260271959388
 20
-0.38031496062992
 30
0.0
 11
-1.1260271959388
 21
-0.33661417322835
 31
0.0
  0
LINE
  5
13D
102
{ACAD_REACTORS
330
192
330
192
102
}
330
43
100
AcDbEntity
  8
1
  6
Continuous
 62
     7
100
AcDbLine
 10
-1.26775947940337
 20
-0.33661417322835
 30
0.0
 11
-1.26775947940337
 21
-0.29527559055118
 31
0.0
  0
LINE
  5
13E
330
43
100
AcDbEntity
  8
1
  6
Continuous
 62
     7
100
AcDbLine
 10
-1.26775947940337
 20
0.11181006528193
 30
0.0
 11
-1.26775947940337
 21
0.29527559055117
 31
0.0
  0
LINE
  5
13F
330
43
100
AcDbEntity
  8
1
  6
Continuous
 62
     7
100
AcDbLine
 10
-1.26775947940337
 20
-0.29527559055118
 30
0.0
 11
-1.26775947940337
 21
-0.11181006528193
 31
0.0
  0
LINE
  5
140
102
{ACAD_REACTORS
330
192
330
192
102
}
330
43
100
AcDbEntity
  8
1
  6
Continuous
 62
     7
100
AcDbLine
 10
-1.26775947940337
 20
-0.33661417322835
 30
0.0
 11
-1.1260271959388
 21
-0.33661417322835
 31
0.0
  0
LINE
  5
141
102
{ACAD_REACTORS
330
194
330
194
102
}
330
43
100
AcDbEntity
  8
1
  6
Continuous
 62
     7
100
AcDbLine
 10
-2.27226447684614
 20
0.16874336105869
 30
0.0
 11
-2.28639421660816
 21
0.19504008556128
 31
0.0
  0
LINE
  5
142
102
{ACAD_REACTORS
330
194
330
194
102
}
330
43
100
AcDbEntity
  8
1
  6
Continuous
 62
     7
100
AcDbLine
 10
-2.25277507226644
 20
0.20023788791038
 30
0.0
 11
-2.27226447684614
 21
0.16874336105869
 31
0.0
  0
LINE
  5
143
102
{ACAD_REACTORS
330
194
330
194
102
}
330
43
100
AcDbEntity
  8
1
  6
Continuous
 62
     7
100
AcDbLine
 10
-2.23524471422256
 20
0.16761230501388
 30
0.0
 11
-2.25277507226644
 21
0.20023788791038
 31
0.0
  0
LINE
  5
144
102
{ACAD_REACTORS
330
194
330
194
102
}
330
43
100
AcDbEntity
  8
1
  6
Continuous
 62
     7
100
AcDbLine
 10
-2.21575530964286
 20
0.19910683186557
 30
0.0
 11
-2.23524471422256
 21
0.16761230501388
 31
0.0
  0
LINE
  5
145
102
{ACAD_REACTORS
330
194
330
194
102
}
330
43
100
AcDbEntity
  8
1
  6
Continuous
 62
     7
100
AcDbLine
 10
-2.19822495159898
 20
0.16648124896908
 30
0.0
 11
-2.21575530964286
 21
0.19910683186557
 31
0.0
  0
LINE
  5
146
102
{ACAD_REACTORS
330
194
330
194
102
}
330
43
100
AcDbEntity
  8
1
  6
Continuous
 62
     7
100
AcDbLine
 10
-2.17873554701928
 20
0.19797577582077
 30
0.0
 11
-2.19822495159898
 21
0.16648124896908
 31
0.0
  0
LINE
  5
147
102
{ACAD_REACTORS
330
194
330
194
102
}
330
43
100
AcDbEntity
  8
1
  6
Continuous
 62
     7
100
AcDbLine
 10
-2.1612051889754
 20
0.16535019292427
 30
0.0
 11
-2.17873554701928
 21
0.19797577582077
 31
0.0
  0
LINE
  5
148
102
{ACAD_REACTORS
330
194
330
194
102
}
330
43
100
AcDbEntity
  8
1
  6
Continuous
 62
     7
100
AcDbLine
 10
-2.1417157843957
 20
0.19684471977596
 30
0.0
 11
-2.1612051889754
 21
0.16535019292427
 31
0.0
  0
LINE
  5
149
102
{ACAD_REACTORS
330
194
330
194
102
}
330
43
100
AcDbEntity
  8
1
  6
Continuous
 62
     7
100
AcDbLine
 10
-2.12418542635182
 20
0.16421913687946
 30
0.0
 11
-2.1417157843957
 21
0.19684471977596
 31
0.0
  0
LINE
  5
14A
102
{ACAD_REACTORS
330
194
330
194
102
}
330
43
100
AcDbEntity
  8
1
  6
Continuous
 62
     7
100
AcDbLine
 10
-2.10469602177211
 20
0.19571366373115
 30
0.0
 11
-2.12418542635182
 21
0.16421913687946
 31
0.0
  0
LINE
  5
14B
102
{ACAD_REACTORS
330
192
330
192
102
}
330
43
100
AcDbEntity
  8
1
  6
Continuous
 62
     7
100
AcDbLine
 10
-2.27030543031033
 20
-0.2007884558519
 30
0.0
 11
-2.28744451877345
 21
-0.17309199752205
 31
0.0
  0
LINE
  5
14C
102
{ACAD_REACTORS
330
192
330
192
102
}
330
43
100
AcDbEntity
  8
1
  6
Continuous
 62
     7
100
AcDbLine
 10
-2.25277507226644
 20
-0.16816287295541
 30
0.0
 11
-2.27030543031033
 21
-0.2007884558519
 31
0.0
  0
LINE
  5
14D
102
{ACAD_REACTORS
330
192
330
192
102
}
330
43
100
AcDbEntity
  8
1
  6
Continuous
 62
     7
100
AcDbLine
 10
-2.23328566768675
 20
-0.19965739980709
 30
0.0
 11
-2.25277507226644
 21
-0.16816287295541
 31
0.0
  0
LINE
  5
14E
102
{ACAD_REACTORS
330
192
330
192
102
}
330
43
100
AcDbEntity
  8
1
  6
Continuous
 62
     7
100
AcDbLine
 10
-2.21575530964286
 20
-0.1670318169106
 30
0.0
 11
-2.23328566768675
 21
-0.19965739980709
 31
0.0
  0
LINE
  5
14F
102
{ACAD_REACTORS
330
192
330
192
102
}
330
43
100
AcDbEntity
  8
1
  6
Continuous
 62
     7
100
AcDbLine
 10
-2.19626590506316
 20
-0.19852634376228
 30
0.0
 11
-2.21575530964286
 21
-0.1670318169106
 31
0.0
  0
LINE
  5
150
102
{ACAD_REACTORS
330
192
330
192
102
}
330
43
100
AcDbEntity
  8
1
  6
Continuous
 62
     7
100
AcDbLine
 10
-2.17873554701928
 20
-0.16590076086579
 30
0.0
 11
-2.19626590506316
 21
-0.19852634376228
 31
0.0
  0
LINE
  5
151
102
{ACAD_REACTORS
330
192
330
192
102
}
330
43
100
AcDbEntity
  8
1
  6
Continuous
 62
     7
100
AcDbLine
 10
-2.15924614243958
 20
-0.19739528771748
 30
0.0
 11
-2.17873554701928
 21
-0.16590076086579
 31
0.0
  0
LINE
  5
152
102
{ACAD_REACTORS
330
192
330
192
102
}
330
43
100
AcDbEntity
  8
1
  6
Continuous
 62
     7
100
AcDbLine
 10
-2.1417157843957
 20
-0.16476970482098
 30
0.0
 11
-2.15924614243958
 21
-0.19739528771748
 31
0.0
  0
LINE
  5
153
102
{ACAD_REACTORS
330
192
330
192
102
}
330
43
100
AcDbEntity
  8
1
  6
Continuous
 62
     7
100
AcDbLine
 10
-2.122226379816
 20
-0.19626423167267
 30
0.0
 11
-2.1417157843957
 21
-0.16476970482098
 31
0.0
  0
LINE
  5
154
102
{ACAD_REACTORS
330
192
330
192
102
}
330
43
100
AcDbEntity
  8
1
  6
Continuous
 62
     7
100
AcDbLine
 10
-2.10469602177211
 20
-0.16363864877617
 30
0.0
 11
-2.122226379816
 21
-0.19626423167267
 31
0.0
  0
LINE
  5
155
102
{ACAD_REACTORS
330
192
330
192
102
}
330
43
100
AcDbEntity
  8
1
  6
Continuous
 62
     7
100
AcDbLine
 10
-2.08520661719242
 20
-0.19513317562786
 30
0.0
 11
-2.10469602177211
 21
-0.16363864877617
 31
0.0
  0
LINE
  5
156
102
{ACAD_REACTORS
330
193
330
193
102
}
330
43
100
AcDbEntity
  8
1
  6
Continuous
 62
     7
100
AcDbLine
 10
-1.26775947940337
 20
0.29527559055117
 30
0.0
 11
-1.26775947940337
 21
0.33661417322834
 31
0.0
  0
LINE
  5
157
102
{ACAD_REACTORS
330
193
330
193
102
}
330
43
100
AcDbEntity
  8
1
  6
Continuous
 62
     7
100
AcDbLine
 10
-1.1260271959388
 20
0.33661417322834
 30
0.0
 11
-1.26775947940337
 21
0.33661417322834
 31
0.0
  0
LINE
  5
158
102
{ACAD_REACTORS
330
193
330
193
102
}
330
43
100
AcDbEntity
  8
1
  6
Continuous
 62
     7
100
AcDbLine
 10
-1.1260271959388
 20
0.33661417322834
 30
0.0
 11
-1.1260271959388
 21
0.38031496062992
 31
0.0
  0
LINE
  5
159
330
43
100
AcDbEntity
  8
1
  6
Continuous
 62
     7
100
AcDbLine
 10
1.48029961877901
 20
-0.39897537780377
 30
0.0
 11
1.4888337409237
 21
-0.41375691095637
 31
0.0
  0
LINE
  5
15A
330
43
100
AcDbEntity
  8
1
  6
Continuous
 62
     7
100
AcDbLine
 10
1.46061457940892
 20
-0.43307086614173
 30
0.0
 11
1.48029961877901
 21
-0.39897537780377
 31
0.0
  0
LINE
  5
15B
330
43
100
AcDbEntity
  8
1
  6
Continuous
 62
     7
100
AcDbLine
 10
1.44092954003885
 20
-0.39897537780377
 30
0.0
 11
1.46061457940892
 21
-0.43307086614173
 31
0.0
  0
LINE
  5
15C
330
43
100
AcDbEntity
  8
1
  6
Continuous
 62
     7
100
AcDbLine
 10
1.42124450066877
 20
-0.43307086614173
 30
0.0
 11
1.44092954003885
 21
-0.39897537780377
 31
0.0
  0
LINE
  5
15D
330
43
100
AcDbEntity
  8
1
  6
Continuous
 62
     7
100
AcDbLine
 10
1.48029961877901
 20
0.43307086614173
 30
0.0
 11
1.49014213846404
 21
0.0
 31
0.0
  0
LINE
  5
15E
330
43
100
AcDbEntity
  8
1
  6
Continuous
 62
     7
100
AcDbLine
 10
1.44092954003885
 20
0.43307086614173
 30
0.0
 11
1.46061457940892
 21
-0.43307086614173
 31
0.0
  0
LINE
  5
15F
330
43
100
AcDbEntity
  8
1
  6
Continuous
 62
     7
100
AcDbLine
 10
1.48029961877901
 20
0.43307086614173
 30
0.0
 11
1.53144285128596
 21
0.34448818897637
 31
0.0
  0
LINE
  5
160
330
43
100
AcDbEntity
  8
1
  6
Continuous
 62
     7
100
AcDbLine
 10
1.46061457940892
 20
0.39897537780376
 30
0.0
 11
1.48029961877901
 21
0.43307086614173
 31
0.0
  0
LINE
  5
161
330
43
100
AcDbEntity
  8
1
  6
Continuous
 62
     7
100
AcDbLine
 10
1.44092954003885
 20
0.43307086614173
 30
0.0
 11
1.46061457940892
 21
0.39897537780376
 31
0.0
  0
LINE
  5
162
330
43
100
AcDbEntity
  8
1
  6
Continuous
 62
     7
100
AcDbLine
 10
1.42124450066877
 20
0.39897537780376
 30
0.0
 11
1.44092954003885
 21
0.43307086614173
 31
0.0
  0
LINE
  5
163
330
43
100
AcDbEntity
  8
1
  6
Continuous
 62
     7
100
AcDbLine
 10
1.40155946129869
 20
0.43307086614173
 30
0.0
 11
1.42124450066877
 21
-0.43307086614173
 31
0.0
  0
LINE
  5
164
330
43
100
AcDbEntity
  8
1
  6
Continuous
 62
     7
100
AcDbLine
 10
1.40155946129869
 20
-0.39897537780377
 30
0.0
 11
1.42124450066877
 21
-0.43307086614173
 31
0.0
  0
LINE
  5
165
330
43
100
AcDbEntity
  8
1
  6
Continuous
 62
     7
100
AcDbLine
 10
1.3930271959388
 20
-0.41375369491075
 30
0.0
 11
1.40155946129869
 21
-0.39897537780377
 31
0.0
  0
LINE
  5
166
330
43
100
AcDbEntity
  8
1
  6
Continuous
 62
     7
100
AcDbLine
 10
1.40155946129869
 20
0.43307086614173
 30
0.0
 11
1.42124450066877
 21
0.39897537780376
 31
0.0
  0
LINE
  5
167
330
43
100
AcDbEntity
  8
1
  6
Continuous
 62
     7
100
AcDbLine
 10
1.3930271959388
 20
0.41829254903474
 30
0.0
 11
1.40155946129869
 21
0.43307086614173
 31
0.0
  0
LINE
  5
168
102
{ACAD_REACTORS
330
193
330
193
102
}
330
43
100
AcDbEntity
  8
1
  6
Continuous
 62
     7
100
AcDbLine
 10
-1.26775947940337
 20
0.29527559055117
 30
0.0
 11
-1.7240271959388
 21
0.29527559055117
 31
0.0
  0
LINE
  5
169
102
{ACAD_REACTORS
330
193
330
193
102
}
330
43
100
AcDbEntity
  8
1
  6
Continuous
 62
     7
100
AcDbLine
 10
-1.7240271959388
 20
0.29527559055117
 30
0.0
 11
-1.7240271959388
 21
0.33464566929134
 31
0.0
  0
LINE
  5
16A
102
{ACAD_REACTORS
330
194
330
194
102
}
330
43
100
AcDbEntity
  8
1
  6
Continuous
 62
     7
100
AcDbLine
 10
-1.9280271959388
 20
0.29527559055117
 30
0.0
 11
-1.9280271959388
 21
0.33464566929134
 31
0.0
  0
LINE
  5
16B
330
43
100
AcDbEntity
  8
1
  6
Center
 62
     2
100
AcDbLine
 10
-1.8260271959388
 20
0.47601502218135
 30
0.0
 11
-1.8260271959388
 21
0.0
 31
0.0
  0
LINE
  5
16C
102
{ACAD_REACTORS
330
194
330
194
102
}
330
43
100
AcDbEntity
  8
1
  6
Continuous
 62
     7
100
AcDbLine
 10
-1.95279884948211
 20
0.29527559055117
 30
0.0
 11
-1.9280271959388
 21
0.29527559055117
 31
0.0
  0
LINE
  5
16D
330
43
100
AcDbEntity
  8
1
  6
Continuous
 62
     7
100
AcDbLine
 10
-1.95279884948211
 20
-0.29527559055118
 30
0.0
 11
-1.95279884948211
 21
0.29527559055117
 31
0.0
  0
LINE
  5
16E
102
{ACAD_REACTORS
330
195
330
195
102
}
330
43
100
AcDbEntity
  8
1
  6
Continuous
 62
     7
100
AcDbLine
 10
0.102
 20
0.31872201677237
 30
0.0
 11
0.102
 21
0.27709867263368
 31
0.0
  0
LINE
  5
16F
102
{ACAD_REACTORS
330
195
330
195
102
}
330
43
100
AcDbEntity
  8
1
  6
Continuous
 62
     7
100
AcDbLine
 10
-0.102
 20
0.27709867263368
 30
0.0
 11
-0.102
 21
0.31872201677237
 31
0.0
  0
LINE
  5
170
330
43
100
AcDbEntity
  8
1
  6
Center
 62
     2
100
AcDbLine
 10
-0.41141732283465
 20
0.0
 30
0.0
 11
0.41141732283465
 21
0.0
 31
0.0
  0
LINE
  5
171
330
43
100
AcDbEntity
  8
1
  6
Center
 62
     2
100
AcDbLine
 10
0.0
 20
0.47601502218135
 30
0.0
 11
0.0
 21
-0.41141732283465
 31
0.0
  0
LINE
  5
172
330
43
100
AcDbEntity
  8
1
  6
Continuous
 62
     7
100
AcDbLine
 10
-0.102
 20
0.31872201677237
 30
0.0
 11
-0.1
 21
0.31872201677237
 31
0.0
  0
LINE
  5
173
330
43
100
AcDbEntity
  8
1
  6
Continuous
 62
     7
100
AcDbLine
 10
-0.102
 20
0.27709867263368
 30
0.0
 11
-0.07
 21
0.27709867263368
 31
0.0
  0
LINE
  5
174
330
43
100
AcDbEntity
  8
1
  6
Continuous
 62
     7
100
AcDbLine
 10
0.102
 20
0.27709867263368
 30
0.0
 11
0.07
 21
0.27709867263368
 31
0.0
  0
LINE
  5
175
330
43
100
AcDbEntity
  8
1
  6
Continuous
 62
     7
100
AcDbLine
 10
0.102
 20
0.31872201677237
 30
0.0
 11
0.1
 21
0.31872201677237
 31
0.0
  0
LINE
  5
176
330
43
100
AcDbEntity
  8
1
  6
Continuous
 62
     7
100
AcDbLine
 10
-1.7240271959388
 20
0.29527559055117
 30
0.0
 11
-1.7260271959388
 21
0.29527559055117
 31
0.0
  0
LINE
  5
177
330
43
100
AcDbEntity
  8
1
  6
Continuous
 62
     7
100
AcDbLine
 10
-1.9280271959388
 20
0.29527559055117
 30
0.0
 11
-1.9260271959388
 21
0.29527559055117
 31
0.0
  0
LINE
  5
178
330
43
100
AcDbEntity
  8
1
  6
Continuous
 62
     7
100
AcDbLine
 10
-1.9280271959388
 20
0.33464566929134
 30
0.0
 11
-1.9260271959388
 21
0.33464566929134
 31
0.0
  0
LINE
  5
179
330
43
100
AcDbEntity
  8
1
  6
Continuous
 62
     7
100
AcDbLine
 10
-1.7240271959388
 20
0.33464566929134
 30
0.0
 11
-1.7260271959388
 21
0.33464566929134
 31
0.0
  0
ARC
  5
17A
102
{ACAD_REACTORS
330
195
330
195
102
}
330
43
100
AcDbEntity
  8
1
  6
Continuous
 62
     7
100
AcDbCircle
 10
0.0
 20
0.0
 30
0.0
 40
0.2952755905511829
100
AcDbArc
 50
110.2086573097423
 51
69.79134269025781
  0
ARC
  5
17B
102
{ACAD_REACTORS
330
194
330
194
102
}
330
43
100
AcDbEntity
  8
1
  6
Continuous
 62
     7
100
AcDbCircle
 10
-1.37947207782857
 20
0.0
 30
0.0
 40
0.9276574803149585
100
AcDbArc
 50
156.2226839207442
 51
167.862990380859
  0
ARC
  5
17C
330
43
100
AcDbEntity
  8
1
  6
Continuous
 62
     7
100
AcDbCircle
 10
1.37547678413334
 20
0.0
 30
0.0
 40
0.9276574803149631
100
AcDbArc
 50
-23.77731607925627
 51
-11.82450412524264
  0
ARC
  5
17D
330
43
100
AcDbEntity
  8
1
  6
Continuous
 62
     7
100
AcDbCircle
 10
1.37547678413334
 20
0.0
 30
0.0
 40
0.9276574803149617
100
AcDbArc
 50
11.82450412524237
 51
23.77731607925576
  0
ARC
  5
17E
330
43
100
AcDbEntity
  8
1
  6
Continuous
 62
     7
100
AcDbCircle
 10
-1.37947207782857
 20
0.0
 30
0.0
 40
0.9276574803149597
100
AcDbArc
 50
167.862990380859
 51
168.1754958747576
  0
ARC
  5
17F
102
{ACAD_REACTORS
330
194
330
194
102
}
330
43
100
AcDbEntity
  8
1
  6
Continuous
 62
     7
100
AcDbCircle
 10
-1.80972630801788
 20
0.0
 30
0.0
 40
0.328111911542966
100
AcDbArc
 50
115.8519982494124
 51
147.0971165333369
  0
ARC
  5
180
330
43
100
AcDbEntity
  8
1
  6
Continuous
 62
     7
100
AcDbCircle
 10
-1.80972630801788
 20
0.0
 30
0.0
 40
0.3281119115429745
100
AcDbArc
 50
-147.0971165333369
 51
-145.5144964351939
  0
ARC
  5
181
102
{ACAD_REACTORS
330
192
330
192
102
}
330
43
100
AcDbEntity
  8
1
  6
Continuous
 62
     7
100
AcDbCircle
 10
-1.80972630801788
 20
0.0
 30
0.0
 40
0.3281119115429752
100
AcDbArc
 50
-145.5144964351939
 51
-115.8519982494119
  0
ARC
  5
182
102
{ACAD_REACTORS
330
194
330
194
102
}
330
43
100
AcDbEntity
  8
1
  6
Continuous
 62
     7
100
AcDbCircle
 10
-1.80972630801788
 20
0.0
 30
0.0
 40
0.3281119115429745
100
AcDbArc
 50
147.0971165333369
 51
148.8862017695334
  0
ARC
  5
183
102
{ACAD_REACTORS
330
192
330
192
102
}
330
43
100
AcDbEntity
  8
1
  6
Continuous
 62
     7
100
AcDbCircle
 10
-1.37947207782857
 20
0.0
 30
0.0
 40
0.92765748031496
100
AcDbArc
 50
-168.1754958747573
 51
-156.2226839207437
  0
ARC
  5
184
330
43
100
AcDbEntity
  8
1
  6
Continuous
 62
     2
100
AcDbCircle
 10
0.0
 20
0.0
 30
0.0
 40
0.1923394887544804
100
AcDbArc
 50
112.4464992705678
 51
0.0
  0
ARC
  5
185
102
{ACAD_REACTORS
330
195
330
195
102
}
330
43
100
AcDbEntity
  8
1
  6
Continuous
 62
     7
100
AcDbCircle
 10
0.0
 20
0.0
 30
0.0
 40
0.3346456692913354
100
AcDbArc
 50
107.7461318360199
 51
72.25386816398027
  0
ARC
  5
186
330
43
100
AcDbEntity
  8
1
  6
Continuous
 62
     7
100
AcDbCircle
 10
0.0
 20
0.0
 30
0.0
 40
0.3740157480314955
100
AcDbArc
 50
111.9820307664022
 51
68.01796923359812
  0
CIRCLE
  5
187
330
43
100
AcDbEntity
  8
1
  6
Continuous
 62
     2
100
AcDbCircle
 10
0.0
 20
0.0
 30
0.0
 40
0.1530880808346533
  0
CIRCLE
  5
188
330
43
100
AcDbEntity
  8
1
  6
DOTTED
 62
     1
100
AcDbCircle
 10
0.0
 20
0.0
 30
0.0
 40
0.3740157480314947
  0
ARC
  5
189
330
43
100
AcDbEntity
  8
1
  6
Continuous
 62
     7
100
AcDbCircle
 10
2.10031486734512
 20
-0.35433070866142
 30
0.0
 40
0.0196850393700774
100
AcDbArc
 50
15.00000000001251
 51
90.0
  0
ARC
  5
18A
330
43
100
AcDbEntity
  8
1
  6
Continuous
 62
     7
100
AcDbCircle
 10
2.10031486734512
 20
0.35433070866142
 30
0.0
 40
0.0196850393700831
100
AcDbArc
 50
-90.0
 51
-15.00000000001157
  0
ARC
  5
18B
330
43
100
AcDbEntity
  8
1
  6
Continuous
 62
     7
100
AcDbCircle
 10
1.54817192515688
 20
-0.35433070866142
 30
0.0
 40
0.0196850393700832
100
AcDbArc
 50
90.0
 51
148.5989533724555
  0
ARC
  5
18C
330
43
100
AcDbEntity
  8
1
  6
Continuous
 62
     7
100
AcDbCircle
 10
1.54849059545494
 20
0.35433070866142
 30
0.0
 40
0.0196850393700822
100
AcDbArc
 50
-149.9999999999832
 51
-90.0
  0
ARC
  5
18D
102
{ACAD_REACTORS
330
193
330
193
102
}
330
43
100
AcDbEntity
  8
1
  6
Continuous
 62
     7
100
AcDbCircle
 10
-1.55266773175464
 20
0.35464566929133
 30
0.0
 40
0.0199999999999969
100
AcDbArc
 50
-90.0
 51
-29.99999999998953
  0
ARC
  5
18E
102
{ACAD_REACTORS
330
192
330
192
102
}
330
43
100
AcDbEntity
  8
1
  6
Continuous
 62
     7
100
AcDbCircle
 10
-1.55266773175464
 20
-0.35464566929134
 30
0.0
 40
0.02
100
AcDbArc
 50
29.99999999999963
 51
90.0
  0
ARC
  5
18F
102
{ACAD_REACTORS
330
194
330
194
102
}
330
43
100
AcDbEntity
  8
1
  6
Continuous
 62
     7
100
AcDbCircle
 10
-2.10406848324886
 20
0.35464566929133
 30
0.0
 40
0.0199999999999993
100
AcDbArc
 50
-165.0000000000031
 51
-90.0
  0
ARC
  5
190
102
{ACAD_REACTORS
330
192
330
192
102
}
330
43
100
AcDbEntity
  8
1
  6
Continuous
 62
     7
100
AcDbCircle
 10
-2.10406848324886
 20
-0.35464566929134
 30
0.0
 40
0.0200000000000005
100
AcDbArc
 50
90.0
 51
164.9999999999944
  0
HATCH
  5
191
330
43
100
AcDbEntity
  8
1
  6
Continuous
 62
     2
100
AcDbHatch
 10
0.0
 20
0.0
 30
0.0
210
0.0
220
0.0
230
1.0
  2
CUSTOM2
 70
     0
 71
     1
 91
        1
 92
        1
 93
        4
 72
     1
 10
2.224394106967981
 20
0.3740157480314926
 11
2.224394106967981
 21
-0.3740157480315017
 72
     1
 10
2.224394106967981
 20
-0.3740157480315017
 11
2.125968910117587
 21
-0.3740157480315017
 72
     1
 10
2.125968910117587
 20
-0.3740157480315017
 11
2.125968910117587
 21
0.3740157480314926
 72
     1
 10
2.125968910117587
 20
0.3740157480314926
 11
2.224394106967981
 21
0.3740157480314926
 97
        4
330
104
330
10A
330
105
330
109
 75
     1
 76
     2
 52
315.0
 41
0.04
 77
     0
 78
     2
 53
45.00000000000006
 43
2.663805846314851
 44
6.901907164480326
 45
-0.0565685424949238
 46
0.0
 79
     0
 53
315.0
 43
2.663805846314851
 44
6.901907164480326
 45
0.0
 46
0.0565685424949238
 79
     0
 98
        1
 10
0.0
 20
0.0
  0
HATCH
  5
192
330
43
100
AcDbEntity
  8
1
  6
Continuous
 62
     2
100
AcDbHatch
 10
0.0
 20
0.0
 30
0.0
210
0.0
220
0.0
230
1.0
  2
_USER
 70
     0
 71
     1
 91
        1
 92
        1
 93
       42
 72
     1
 10
-2.252775072266442
 20
-0.1681628729554063
 11
-2.270305430310325
 21
-0.2007884558519014
 72
     1
 10
-2.270305430310325
 20
-0.2007884558519014
 11
-2.287444518773447
 21
-0.1730919975220502
 72
     1
 10
-2.287444518773447
 20
-0.1730919975220502
 11
-2.287444518773447
 21
-0.1900906290927998
 72
     2
 10
-1.379472077828567
 20
0.0
 40
0.92765748031496
 50
191.8245041252427
 51
203.7773160792563
 73
     1
 72
     1
 10
-2.228389400663212
 20
-0.3740157480315017
 11
-2.129964203812818
 21
-0.3740157480315017
 72
     1
 10
-2.129964203812818
 20
-0.3740157480315017
 11
-2.123386999774645
 21
-0.3494692883892877
 72
     2
 10
-2.104068483248863
 20
-0.3546456692913403
 40
0.0200000000000005
 50
195.0000000000056
 51
270.0
 73
     0
 72
     1
 10
-2.104068483248863
 20
-0.3346456692913398
 11
-1.552667731754643
 21
-0.3346456692913398
 72
     2
 10
-1.552667731754643
 20
-0.3546456692913403
 40
0.02
 50
270.0
 51
330.0000000000003
 73
     0
 72
     1
 10
-1.535347223678954
 20
-0.3446456692913404
 11
-1.494137432159276
 21
-0.4160231219727467
 72
     1
 10
-1.494137432159276
 20
-0.4160231219727467
 11
-1.484294912474236
 21
-0.3989753778037652
 72
     1
 10
-1.484294912474236
 20
-0.3989753778037652
 11
-1.464609873104157
 21
-0.4330708661417324
 72
     1
 10
-1.464609873104157
 20
-0.4330708661417324
 11
-1.444924833734079
 21
-0.3989753778037652
 72
     1
 10
-1.444924833734079
 20
-0.3989753778037652
 11
-1.425239794364
 21
-0.4330708661417324
 72
     1
 10
-1.425239794364
 20
-0.4330708661417324
 11
-1.405554754993921
 21
-0.3989753778037652
 72
     1
 10
-1.405554754993921
 20
-0.3989753778037652
 11
-1.385869715623842
 21
-0.4330708661417324
 72
     1
 10
-1.385869715623842
 20
-0.4330708661417324
 11
-1.366184676253763
 21
-0.3989753778037652
 72
     1
 10
-1.366184676253763
 20
-0.3989753778037652
 11
-1.346499636883685
 21
-0.4330708661417324
 72
     1
 10
-1.346499636883685
 20
-0.4330708661417324
 11
-1.326814597513606
 21
-0.3989753778037652
 72
     1
 10
-1.326814597513606
 20
-0.3989753778037652
 11
-1.307129558143528
 21
-0.4330708661417324
 72
     1
 10
-1.307129558143528
 20
-0.4330708661417324
 11
-1.287444518773449
 21
-0.3989753778037652
 72
     1
 10
-1.287444518773449
 20
-0.3989753778037652
 11
-1.26775947940337
 21
-0.4330708661417324
 72
     1
 10
-1.26775947940337
 20
-0.4330708661417324
 11
-1.248074440033292
 21
-0.3989753778037652
 72
     1
 10
-1.248074440033292
 20
-0.3989753778037652
 11
-1.228389400663213
 21
-0.4330708661417324
 72
     1
 10
-1.228389400663213
 20
-0.4330708661417324
 11
-1.228389400663213
 21
-0.3999999999999976
 72
     1
 10
-1.228389400663213
 20
-0.3999999999999976
 11
-1.145712235308882
 21
-0.3999999999999976
 72
     1
 10
-1.145712235308882
 20
-0.3999999999999976
 11
-1.126027195938803
 21
-0.3803149606299189
 72
     1
 10
-1.126027195938803
 20
-0.3803149606299189
 11
-1.126027195938803
 21
-0.3366141732283526
 72
     1
 10
-1.126027195938803
 20
-0.3366141732283526
 11
-1.26775947940337
 21
-0.3366141732283526
 72
     1
 10
-1.26775947940337
 20
-0.3366141732283526
 11
-1.26775947940337
 21
-0.2952755905511822
 72
     1
 10
-1.26775947940337
 20
-0.2952755905511822
 11
-1.952798849482109
 21
-0.2952755905511822
 72
     2
 10
-1.809726308017877
 20
0.0
 40
0.3281119115429752
 50
115.8519982494119
 51
145.5144964351939
 73
     0
 72
     1
 10
-2.080178939111848
 20
-0.1857762116922767
 11
-2.085206617192417
 21
-0.1951331756278609
 72
     1
 10
-2.085206617192417
 20
-0.1951331756278609
 11
-2.104696021772115
 21
-0.1636386487761697
 72
     1
 10
-2.104696021772115
 20
-0.1636386487761697
 11
-2.122226379815997
 21
-0.1962642316726715
 72
     1
 10
-2.122226379815997
 20
-0.1962642316726715
 11
-2.141715784395698
 21
-0.1647697048209825
 72
     1
 10
-2.141715784395698
 20
-0.1647697048209825
 11
-2.159246142439579
 21
-0.1973952877174776
 72
     1
 10
-2.159246142439579
 20
-0.1973952877174776
 11
-2.178735547019278
 21
-0.1659007608657897
 72
     1
 10
-2.178735547019278
 20
-0.1659007608657897
 11
-2.196265905063163
 21
-0.1985263437622836
 72
     1
 10
-2.196265905063163
 20
-0.1985263437622836
 11
-2.215755309642861
 21
-0.1670318169106003
 72
     1
 10
-2.215755309642861
 20
-0.1670318169106003
 11
-2.233285667686745
 21
-0.1996573998070942
 72
     1
 10
-2.233285667686745
 20
-0.1996573998070942
 11
-2.252775072266442
 21
-0.1681628729554063
 97
       42
330
14E
330
14F
330
150
330
151
330
152
330
153
330
154
330
155
330
113
330
181
330
118
330
13D
330
140
330
13C
330
110
330
126
330
11C
330
11D
330
131
330
130
330
12F
330
12E
330
12D
330
12C
330
12B
330
12A
330
129
330
121
330
120
330
11F
330
11E
330
112
330
18E
330
116
330
190
330
115
330
117
330
183
330
102
330
14B
330
14C
330
14D
 75
     1
 76
     0
 52
315.0
 41
0.04
 77
     0
 78
     1
 53
315.0
 43
0.0
 44
0.0
 45
0.0282842712474619
 46
0.0282842712474619
 79
     0
 98
        1
 10
0.0
 20
0.0
  0
HATCH
  5
193
330
43
100
AcDbEntity
  8
1
  6
Continuous
 62
     2
100
AcDbHatch
 10
0.0
 20
0.0
 30
0.0
210
0.0
220
0.0
230
1.0
  2
_USER
 70
     0
 71
     1
 91
        1
 92
        1
 93
       24
 72
     1
 10
-1.307129558143528
 20
0.3989753778037564
 11
-1.287444518773449
 21
0.4330708661417289
 72
     1
 10
-1.287444518773449
 20
0.4330708661417289
 11
-1.26775947940337
 21
0.3989753778037564
 72
     1
 10
-1.26775947940337
 20
0.3989753778037564
 11
-1.248074440033292
 21
0.4330708661417289
 72
     1
 10
-1.248074440033292
 20
0.4330708661417289
 11
-1.228389400663213
 21
0.3989753778037564
 72
     1
 10
-1.228389400663213
 20
0.3989753778037564
 11
-1.228389400663213
 21
0.3999999999999976
 72
     1
 10
-1.228389400663213
 20
0.3999999999999976
 11
-1.145712235308882
 21
0.3999999999999976
 72
     1
 10
-1.145712235308882
 20
0.3999999999999976
 11
-1.126027195938803
 21
0.3803149606299189
 72
     1
 10
-1.126027195938803
 20
0.3803149606299189
 11
-1.126027195938803
 21
0.3366141732283435
 72
     1
 10
-1.126027195938803
 20
0.3366141732283435
 11
-1.26775947940337
 21
0.3366141732283435
 72
     1
 10
-1.26775947940337
 20
0.3366141732283435
 11
-1.26775947940337
 21
0.2952755905511744
 72
     1
 10
-1.26775947940337
 20
0.2952755905511744
 11
-1.724027195938802
 21
0.2952755905511744
 72
     1
 10
-1.724027195938802
 20
0.2952755905511744
 11
-1.724027195938802
 21
0.3346456692913353
 72
     1
 10
-1.724027195938802
 20
0.3346456692913353
 11
-1.552667731754642
 21
0.3346456692913353
 72
     2
 10
-1.552667731754642
 20
0.3546456692913322
 40
0.0199999999999969
 50
270.0
 51
330.0000000000105
 73
     1
 72
     1
 10
-1.535347223678953
 20
0.3446456692913362
 11
-1.484294912474236
 21
0.4330708661417289
 72
     1
 10
-1.484294912474236
 20
0.4330708661417289
 11
-1.464609873104157
 21
0.3989753778037564
 72
     1
 10
-1.464609873104157
 20
0.3989753778037564
 11
-1.444924833734079
 21
0.4330708661417289
 72
     1
 10
-1.444924833734079
 20
0.4330708661417289
 11
-1.425239794364
 21
0.3989753778037564
 72
     1
 10
-1.425239794364
 20
0.3989753778037564
 11
-1.405554754993921
 21
0.4330708661417289
 72
     1
 10
-1.405554754993921
 20
0.4330708661417289
 11
-1.385869715623842
 21
0.3989753778037564
 72
     1
 10
-1.385869715623842
 20
0.3989753778037564
 11
-1.366184676253763
 21
0.4330708661417289
 72
     1
 10
-1.366184676253763
 20
0.4330708661417289
 11
-1.346499636883685
 21
0.3989753778037564
 72
     1
 10
-1.346499636883685
 20
0.3989753778037564
 11
-1.326814597513606
 21
0.4330708661417289
 72
     1
 10
-1.326814597513606
 20
0.4330708661417289
 11
-1.307129558143528
 21
0.3989753778037564
 97
       24
330
136
330
135
330
134
330
133
330
132
330
125
330
124
330
123
330
122
330
18D
330
FF
330
169
330
168
330
156
330
157
330
158
330
111
330
128
330
127
330
13B
330
13A
330
139
330
138
330
137
 75
     1
 76
     0
 52
315.0
 41
0.04
 77
     0
 78
     1
 53
315.0
 43
0.0
 44
0.0
 45
0.0282842712474619
 46
0.0282842712474619
 79
     0
 98
        1
 10
0.0
 20
0.0
  0
HATCH
  5
194
330
43
100
AcDbEntity
  8
1
  6
Continuous
 62
     2
100
AcDbHatch
 10
0.0
 20
0.0
 30
0.0
210
0.0
220
0.0
230
1.0
  2
_USER
 70
     0
 71
     1
 91
        1
 92
        1
 93
       20
 72
     1
 10
-2.104068483248864
 20
0.3346456692913353
 11
-1.928027195938802
 21
0.3346456692913353
 72
     1
 10
-1.928027195938802
 20
0.3346456692913353
 11
-1.928027195938802
 21
0.2952755905511744
 72
     1
 10
-1.928027195938802
 20
0.2952755905511744
 11
-1.952798849482109
 21
0.2952755905511744
 72
     2
 10
-1.809726308017877
 20
0.0
 40
0.328111911542966
 50
115.8519982494124
 51
147.0971165333369
 73
     1
 72
     2
 10
-1.809726308017877
 20
0.0
 40
0.3281119115429745
 50
147.0971165333369
 51
148.8862017695334
 73
     1
 72
     1
 10
-2.090636914667839
 20
0.1695483929972035
 11
-2.104696021772115
 21
0.1957136637311497
 72
     1
 10
-2.104696021772115
 20
0.1957136637311497
 11
-2.124185426351815
 21
0.1642191368794607
 72
     1
 10
-2.124185426351815
 20
0.1642191368794607
 11
-2.141715784395698
 21
0.1968447197759558
 72
     1
 10
-2.141715784395698
 20
0.1968447197759558
 11
-2.161205188975395
 21
0.1653501929242679
 72
     1
 10
-2.161205188975395
 20
0.1653501929242679
 11
-2.178735547019278
 21
0.1979757758207663
 72
     1
 10
-2.178735547019278
 20
0.1979757758207663
 11
-2.198224951598977
 21
0.1664812489690773
 72
     1
 10
-2.198224951598977
 20
0.1664812489690773
 11
-2.215755309642861
 21
0.1991068318655724
 72
     1
 10
-2.215755309642861
 20
0.1991068318655724
 11
-2.23524471422256
 21
0.1676123050138845
 72
     1
 10
-2.23524471422256
 20
0.1676123050138845
 11
-2.252775072266442
 21
0.2002378879103829
 72
     1
 10
-2.252775072266442
 20
0.2002378879103829
 11
-2.27226447684614
 21
0.1687433610586906
 72
     1
 10
-2.27226447684614
 20
0.1687433610586906
 11
-2.286394216608159
 21
0.1950400855612768
 72
     2
 10
-1.379472077828567
 20
0.0
 40
0.9276574803149585
 50
192.137009619141
 51
203.7773160792558
 73
     0
 72
     1
 10
-2.228389400663212
 20
0.3740157480314926
 11
-2.129964203812818
 21
0.3740157480314926
 72
     1
 10
-2.129964203812818
 20
0.3740157480314926
 11
-2.123386999774645
 21
0.349469288389283
 72
     2
 10
-2.104068483248864
 20
0.3546456692913322
 40
0.0199999999999993
 50
194.9999999999969
 51
270.0
 73
     1
 97
       20
330
11B
330
119
330
17B
330
141
330
142
330
143
330
144
330
145
330
146
330
147
330
148
330
149
330
14A
330
114
330
182
330
17F
330
16C
330
16A
330
11A
330
18F
 75
     1
 76
     0
 52
315.0
 41
0.04
 77
     0
 78
     1
 53
315.0
 43
0.0
 44
0.0
 45
0.0282842712474619
 46
0.0282842712474619
 79
     0
 98
        1
 10
0.0
 20
0.0
  0
HATCH
  5
195
330
43
100
AcDbEntity
  8
1
  6
Continuous
 62
     2
100
AcDbHatch
 10
0.0
 20
0.0
 30
0.0
210
0.0
220
0.0
230
1.0
  2
_USER
 70
     0
 71
     1
 91
        1
 92
        1
 93
        4
 72
     2
 10
0.0
 20
0.0
 40
0.3346456692913354
 50
107.7461318360199
 51
432.2538681639803
 73
     1
 72
     1
 10
0.1019999999999994
 20
0.3187220167723683
 11
0.1019999999999996
 21
0.2770986726336844
 72
     2
 10
0.0
 20
0.0
 40
0.2952755905511829
 50
290.2086573097422
 51
609.7913426902577
 73
     0
 72
     1
 10
-0.1020000000000001
 20
0.2770986726336844
 11
-0.1020000000000001
 21
0.3187220167723682
 97
        4
330
185
330
16E
330
17A
330
16F
 75
     1
 76
     0
 52
315.0
 41
0.04
 77
     0
 78
     1
 53
315.0
 43
0.0
 44
0.0
 45
0.0282842712474619
 46
0.0282842712474619
 79
     0
 98
        1
 10
0.0
 20
0.0
  0
ENDBLK
  5
45
330
43
100
AcDbEntity
  8
0
100
AcDbBlockEnd
  0
BLOCK
  5
47
330
46
100
AcDbEntity
  8
0
100
AcDbBlockBegin
  2
O-RING004
 70
     0
 71
     0
 10
-1.64909559550586
 20
1.3978483322718
 30
0.0
  3
O-RING004
  1

  0
CIRCLE
  5
196
102
{ACAD_REACTORS
330
19C
330
19C
102
}
330
46
100
AcDbEntity
  8
1
  6
Continuous
 62
     1
100
AcDbCircle
 10
-0.0700366786047
 20
0.21964566920078
 30
0.0
 40
0.0350000000000005
  0
CIRCLE
  5
197
102
{ACAD_REACTORS
330
19D
330
19D
102
}
330
46
100
AcDbEntity
  8
1
  6
Continuous
 62
     1
100
AcDbCircle
 10
0.06996332138676
 20
0.21964566929133
 30
0.0
 40
0.0350000000000005
  0
CIRCLE
  5
198
102
{ACAD_REACTORS
330
19F
330
19F
102
}
330
46
100
AcDbEntity
  8
1
  6
Continuous
 62
     1
100
AcDbCircle
 10
-1.75606387455204
 20
0.21964566929133
 30
0.0
 40
0.0349999999999999
  0
CIRCLE
  5
199
102
{ACAD_REACTORS
330
19E
330
19E
102
}
330
46
100
AcDbEntity
  8
1
  6
Continuous
 62
     1
100
AcDbCircle
 10
-1.8960638745435
 20
0.21964566920078
 30
0.0
 40
0.035000000000001
  0
TEXT
  5
19B
330
46
100
AcDbEntity
  8
1
 62
     7
100
AcDbText
 10
-2.02578674876487
 20
-0.80958710737822
 30
0.0
 40
0.05905511811024
  1
O-RING 2-004
 41
0.9
  7
CONVERTER_1
100
AcDbText
  0
HATCH
  5
19C
330
46
100
AcDbEntity
  8
1
  6
Continuous
 62
     1
100
AcDbHatch
 10
0.0
 20
0.0
 30
0.0
210
0.0
220
0.0
230
1.0
  2
_USER
 70
     0
 71
     1
 91
        1
 92
        1
 93
        1
 72
     2
 10
-0.0700366786047002
 20
0.2196456692007794
 40
0.0350000000000005
 50
0.0
 51
360.0
 73
     1
 97
        1
330
196
 75
     1
 76
     0
 52
45.0
 41
0.0075
 77
     0
 78
     1
 53
45.0
 43
0.0
 44
0.0
 45
-0.0053033008588991
 46
0.0053033008588991
 79
     0
 98
        1
 10
0.0
 20
0.0
  0
HATCH
  5
19D
330
46
100
AcDbEntity
  8
1
  6
Continuous
 62
     1
100
AcDbHatch
 10
0.0
 20
0.0
 30
0.0
210
0.0
220
0.0
230
1.0
  2
_USER
 70
     0
 71
     1
 91
        1
 92
        1
 93
        1
 72
     2
 10
0.0699633213867569
 20
0.2196456692913327
 40
0.0350000000000005
 50
0.0
 51
360.0
 73
     1
 97
        1
330
197
 75
     1
 76
     0
 52
45.0
 41
0.0075
 77
     0
 78
     1
 53
45.0
 43
0.0
 44
0.0
 45
-0.0053033008588991
 46
0.0053033008588991
 79
     0
 98
        1
 10
0.0
 20
0.0
  0
HATCH
  5
19E
330
46
100
AcDbEntity
  8
1
  6
Continuous
 62
     1
100
AcDbHatch
 10
0.0
 20
0.0
 30
0.0
210
0.0
220
0.0
230
1.0
  2
_USER
 70
     0
 71
     1
 91
        1
 92
        1
 93
        1
 72
     2
 10
-1.896063874543502
 20
0.2196456692007794
 40
0.035000000000001
 50
0.0
 51
360.0
 73
     1
 97
        1
330
199
 75
     1
 76
     0
 52
45.0
 41
0.0075
 77
     0
 78
     1
 53
45.0
 43
0.0
 44
0.0
 45
-0.0053033008588991
 46
0.0053033008588991
 79
     0
 98
        1
 10
0.0
 20
0.0
  0
HATCH
  5
19F
330
46
100
AcDbEntity
  8
1
  6
Continuous
 62
     1
100
AcDbHatch
 10
0.0
 20
0.0
 30
0.0
210
0.0
220
0.0
230
1.0
  2
_USER
 70
     0
 71
     1
 91
        1
 92
        1
 93
        1
 72
     2
 10
-1.756063874552045
 20
0.2196456692913327
 40
0.0349999999999999
 50
0.0
 51
360.0
 73
     1
 97
        1
330
198
 75
     1
 76
     0
 52
45.0
 41
0.0075
 77
     0
 78
     1
 53
45.0
 43
0.0
 44
0.0
 45
-0.0053033008588991
 46
0.0053033008588991
 79
     0
 98
        1
 10
0.0
 20
0.0
  0
ENDBLK
  5
48
330
46
100
AcDbEntity
  8
0
100
AcDbBlockEnd
  0
BLOCK
  5
4B
330
49
100
AcDbEntity
  8
0
100
AcDbBlockBegin
  2
SILCA_BUTTON
 70
     0
 71
     0
 10
2.11932630238825
 20
8.88533216608293
 30
0.0
  3
SILCA_BUTTON
  1

  0
INSERT
  5
4A
330
49
100
AcDbEntity
  8
1
100
AcDbBlockReference
  2
O-RING004
 10
-1.64909559550586
 20
1.3978483322718
 30
0.0
  0
LINE
  5
1A0
330
49
100
AcDbEntity
  8
1
  6
Continuous
 62
     4
100
AcDbLine
 10
-0.175
 20
0.35464566929133
 30
0.0
 11
-0.175
 21
0.39442010259274
 31
0.0
  0
LINE
  5
1A1
330
49
100
AcDbEntity
  8
1
  6
Continuous
 62
     4
100
AcDbLine
 10
-0.15509892213311
 20
0.39937817472443
 30
0.0
 11
0.15509892213311
 21
0.39937817472443
 31
0.0
  0
LINE
  5
1A2
330
49
100
AcDbEntity
  8
1
  6
Continuous
 62
     4
100
AcDbLine
 10
-0.035
 20
0.18464566929133
 30
0.0
 11
0.035
 21
0.18464566929133
 31
0.0
  0
LINE
  5
1A3
330
49
100
AcDbEntity
  8
1
  6
Continuous
 62
     4
100
AcDbLine
 10
0.035
 20
0.25464566929133
 30
0.0
 11
-0.035
 21
0.25464566929133
 31
0.0
  0
LINE
  5
1A4
330
49
100
AcDbEntity
  8
1
  6
Continuous
 62
     4
100
AcDbLine
 10
-0.07
 20
0.35464566929133
 30
0.0
 11
-0.175
 21
0.35464566929133
 31
0.0
  0
LINE
  5
1A5
330
49
100
AcDbEntity
  8
1
  6
Continuous
 62
     4
100
AcDbLine
 10
-0.07
 20
0.25464566929133
 30
0.0
 11
-0.07
 21
0.35464566929133
 31
0.0
  0
LINE
  5
1A6
330
49
100
AcDbEntity
  8
1
  6
Continuous
 62
     4
100
AcDbLine
 10
-0.035
 20
0.25464566929133
 30
0.0
 11
-0.07
 21
0.25464566929133
 31
0.0
  0
LINE
  5
1A7
330
49
100
AcDbEntity
  8
1
  6
Continuous
 62
     4
100
AcDbLine
 10
-0.035
 20
0.18464566929133
 30
0.0
 11
-0.035
 21
0.25464566929133
 31
0.0
  0
LINE
  5
1A8
330
49
100
AcDbEntity
  8
1
  6
Continuous
 62
     4
100
AcDbLine
 10
-0.07
 20
0.18464566929133
 30
0.0
 11
-0.035
 21
0.18464566929133
 31
0.0
  0
LINE
  5
1A9
330
49
100
AcDbEntity
  8
1
  6
Continuous
 62
     4
100
AcDbLine
 10
-0.07
 20
0.15464566929133
 30
0.0
 11
-0.07
 21
0.18464566929133
 31
0.0
  0
LINE
  5
1AA
330
49
100
AcDbEntity
  8
1
  6
Continuous
 62
     4
100
AcDbLine
 10
0.07
 20
0.15464566929133
 30
0.0
 11
-0.07
 21
0.15464566929133
 31
0.0
  0
LINE
  5
1AB
330
49
100
AcDbEntity
  8
1
  6
Continuous
 62
     4
100
AcDbLine
 10
0.07
 20
0.18464566929133
 30
0.0
 11
0.07
 21
0.15464566929133
 31
0.0
  0
LINE
  5
1AC
330
49
100
AcDbEntity
  8
1
  6
Continuous
 62
     4
100
AcDbLine
 10
0.035
 20
0.18464566929133
 30
0.0
 11
0.07
 21
0.18464566929133
 31
0.0
  0
LINE
  5
1AD
330
49
100
AcDbEntity
  8
1
  6
Continuous
 62
     4
100
AcDbLine
 10
0.035
 20
0.25464566929133
 30
0.0
 11
0.035
 21
0.18464566929133
 31
0.0
  0
LINE
  5
1AE
330
49
100
AcDbEntity
  8
1
  6
Continuous
 62
     4
100
AcDbLine
 10
0.07
 20
0.25464566929133
 30
0.0
 11
0.035
 21
0.25464566929133
 31
0.0
  0
LINE
  5
1AF
330
49
100
AcDbEntity
  8
1
  6
Continuous
 62
     4
100
AcDbLine
 10
0.07
 20
0.35464566929133
 30
0.0
 11
-0.07
 21
0.35464566929133
 31
0.0
  0
LINE
  5
1B0
330
49
100
AcDbEntity
  8
1
  6
Continuous
 62
     4
100
AcDbLine
 10
0.07
 20
0.35464566929133
 30
0.0
 11
0.07
 21
0.25464566929133
 31
0.0
  0
LINE
  5
1B1
330
49
100
AcDbEntity
  8
1
  6
Continuous
 62
     4
100
AcDbLine
 10
0.175
 20
0.35464566929133
 30
0.0
 11
0.07
 21
0.35464566929133
 31
0.0
  0
LINE
  5
1B2
330
49
100
AcDbEntity
  8
1
  6
Continuous
 62
     4
100
AcDbLine
 10
0.175
 20
0.39442010259274
 30
0.0
 11
0.175
 21
0.35464566929133
 31
0.0
  0
LINE
  5
1B3
330
49
100
AcDbEntity
  8
1
  6
Continuous
 62
     4
100
AcDbLine
 10
-1.6510271959388
 20
0.39442010259274
 30
0.0
 11
-1.6510271959388
 21
0.35464566929133
 31
0.0
  0
LINE
  5
1B4
330
49
100
AcDbEntity
  8
1
  6
Continuous
 62
     4
100
AcDbLine
 10
-1.6510271959388
 20
0.35464566929133
 30
0.0
 11
-1.7560271959388
 21
0.35464566929133
 31
0.0
  0
LINE
  5
1B5
330
49
100
AcDbEntity
  8
1
  6
Continuous
 62
     4
100
AcDbLine
 10
-1.7560271959388
 20
0.35464566929133
 30
0.0
 11
-1.7560271959388
 21
0.25464566929133
 31
0.0
  0
LINE
  5
1B6
330
49
100
AcDbEntity
  8
1
  6
Continuous
 62
     4
100
AcDbLine
 10
-1.7560271959388
 20
0.35464566929133
 30
0.0
 11
-1.8960271959388
 21
0.35464566929133
 31
0.0
  0
LINE
  5
1B7
330
49
100
AcDbEntity
  8
1
  6
Continuous
 62
     4
100
AcDbLine
 10
-1.7560271959388
 20
0.25464566929133
 30
0.0
 11
-1.7910271959388
 21
0.25464566929133
 31
0.0
  0
LINE
  5
1B8
330
49
100
AcDbEntity
  8
1
  6
Continuous
 62
     4
100
AcDbLine
 10
-1.7910271959388
 20
0.25464566929133
 30
0.0
 11
-1.7910271959388
 21
0.18464566929133
 31
0.0
  0
LINE
  5
1B9
330
49
100
AcDbEntity
  8
1
  6
Continuous
 62
     4
100
AcDbLine
 10
-1.7910271959388
 20
0.18464566929133
 30
0.0
 11
-1.7560271959388
 21
0.18464566929133
 31
0.0
  0
LINE
  5
1BA
330
49
100
AcDbEntity
  8
1
  6
Continuous
 62
     4
100
AcDbLine
 10
-1.7560271959388
 20
0.18464566929133
 30
0.0
 11
-1.7560271959388
 21
0.15464566929133
 31
0.0
  0
LINE
  5
1BB
330
49
100
AcDbEntity
  8
1
  6
Continuous
 62
     4
100
AcDbLine
 10
-1.7560271959388
 20
0.15464566929133
 30
0.0
 11
-1.8960271959388
 21
0.15464566929133
 31
0.0
  0
LINE
  5
1BC
330
49
100
AcDbEntity
  8
1
  6
Continuous
 62
     4
100
AcDbLine
 10
-1.8960271959388
 20
0.15464566929133
 30
0.0
 11
-1.8960271959388
 21
0.18464566929133
 31
0.0
  0
LINE
  5
1BD
330
49
100
AcDbEntity
  8
1
  6
Continuous
 62
     4
100
AcDbLine
 10
-1.8960271959388
 20
0.18464566929133
 30
0.0
 11
-1.8610271959388
 21
0.18464566929133
 31
0.0
  0
LINE
  5
1BE
330
49
100
AcDbEntity
  8
1
  6
Continuous
 62
     4
100
AcDbLine
 10
-1.8610271959388
 20
0.18464566929133
 30
0.0
 11
-1.8610271959388
 21
0.25464566929133
 31
0.0
  0
LINE
  5
1BF
330
49
100
AcDbEntity
  8
1
  6
Continuous
 62
     4
100
AcDbLine
 10
-1.8610271959388
 20
0.25464566929133
 30
0.0
 11
-1.8960271959388
 21
0.25464566929133
 31
0.0
  0
LINE
  5
1C0
330
49
100
AcDbEntity
  8
1
  6
Continuous
 62
     4
100
AcDbLine
 10
-1.8960271959388
 20
0.25464566929133
 30
0.0
 11
-1.8960271959388
 21
0.35464566929133
 31
0.0
  0
LINE
  5
1C1
330
49
100
AcDbEntity
  8
1
  6
Continuous
 62
     4
100
AcDbLine
 10
-1.8960271959388
 20
0.35464566929133
 30
0.0
 11
-2.0010271959388
 21
0.35464566929133
 31
0.0
  0
LINE
  5
1C2
330
49
100
AcDbEntity
  8
1
  6
Continuous
 62
     4
100
AcDbLine
 10
-1.7910271959388
 20
0.25464566929133
 30
0.0
 11
-1.8610271959388
 21
0.25464566929133
 31
0.0
  0
LINE
  5
1C3
330
49
100
AcDbEntity
  8
1
  6
Continuous
 62
     4
100
AcDbLine
 10
-1.8610271959388
 20
0.18464566929133
 30
0.0
 11
-1.7910271959388
 21
0.18464566929133
 31
0.0
  0
LINE
  5
1C4
330
49
100
AcDbEntity
  8
1
  6
Continuous
 62
     4
100
AcDbLine
 10
-1.98112611807191
 20
0.39937817472443
 30
0.0
 11
-1.6709282738057
 21
0.39937817472443
 31
0.0
  0
LINE
  5
1C5
330
49
100
AcDbEntity
  8
1
  6
Continuous
 62
     4
100
AcDbLine
 10
-2.0010271959388
 20
0.35464566929133
 30
0.0
 11
-2.0010271959388
 21
0.39442010259274
 31
0.0
  0
LINE
  5
1C6
330
49
100
AcDbEntity
  8
1
  6
Center
 62
     2
100
AcDbLine
 10
2.33314362459537
 20
0.0
 30
0.0
 11
0.88627177797579
 21
0.0
 31
0.0
  0
LINE
  5
1C7
330
49
100
AcDbEntity
  8
1
  6
Center
 62
     2
100
AcDbLine
 10
1.82203190224357
 20
0.1925
 30
0.0
 11
1.82203190224357
 21
-0.1925
 31
0.0
  0
ARC
  5
1C8
330
49
100
AcDbEntity
  8
1
  6
Continuous
 62
     4
100
AcDbCircle
 10
0.0
 20
-0.04532414125816
 30
0.0
 40
0.5000000000000002
100
AcDbArc
 50
72.93369035414595
 51
107.0663096458541
  0
ARC
  5
1C9
330
49
100
AcDbEntity
  8
1
  6
Continuous
 62
     4
100
AcDbCircle
 10
-1.8260271959388
 20
-0.04532414125816
 30
0.0
 40
0.5000000000000003
100
AcDbArc
 50
72.93369035414592
 51
107.0663096458541
  0
CIRCLE
  5
1CA
330
49
100
AcDbEntity
  8
1
  6
Continuous
 62
     4
100
AcDbCircle
 10
1.82203190224357
 20
0.0
 30
0.0
 40
0.1749999999999981
  0
ARC
  5
1CB
330
49
100
AcDbEntity
  8
1
  6
Continuous
 62
     4
100
AcDbCircle
 10
-0.135
 20
0.39442010259274
 30
0.0
 40
0.0400000000000003
100
AcDbArc
 50
107.0663096458538
 51
180.0
  0
ARC
  5
1CC
330
49
100
AcDbEntity
  8
1
  6
Continuous
 62
     4
100
AcDbCircle
 10
0.135
 20
0.39442010259274
 30
0.0
 40
0.04
100
AcDbArc
 50
0.0
 51
72.93369035414612
  0
ARC
  5
1CD
330
49
100
AcDbEntity
  8
1
  6
Continuous
 62
     4
100
AcDbCircle
 10
-1.6910271959388
 20
0.39442010259274
 30
0.0
 40
0.0399999999999998
100
AcDbArc
 50
0.0
 51
72.93369035414565
  0
ARC
  5
1CE
330
49
100
AcDbEntity
  8
1
  6
Continuous
 62
     4
100
AcDbCircle
 10
-1.9610271959388
 20
0.39442010259274
 30
0.0
 40
0.0400000000000005
100
AcDbArc
 50
107.0663096458547
 51
180.0
  0
ENDBLK
  5
4C
330
49
100
AcDbEntity
  8
0
100
AcDbBlockEnd
  0
ENDSEC
  0
SECTION
  2
ENTITIES
  0
INSERT
  5
4D
330
1F
100
AcDbEntity
  8
1
100
AcDbBlockReference
  2
format_A
 10
0.4253303387152
 20
6.73360663631502
 30
0.0
 41
0.5
 42
0.5
 43
0.5
  0
INSERT
  5
4E
330
1F
100
AcDbEntity
  8
0
100
AcDbBlockReference
  2
SILCA_GROMET
 10
-1.28723272889328
 20
0.6436570904018
 30
0.0
  0
INSERT
  5
4F
330
1F
100
AcDbEntity
  8
1
100
AcDbBlockReference
  2
SILCA_CAP
 10
0.0253303387152
 20
8.55309200462986
 30
0.0
  0
INSERT
  5
50
330
1F
100
AcDbEntity
  8
1
100
AcDbBlockReference
  2
SILCA_SLEEVE
 10
0.20847867373033
 20
8.36309200462985
 30
0.0
  0
INSERT
  5
51
330
1F
100
AcDbEntity
  8
0
100
AcDbBlockReference
  2
SILCA_CHUCK_RND
 10
0.13736125126135
 20
8.67381908364567
 30
0.0
  0
INSERT
  5
52
330
1F
100
AcDbEntity
  8
0
100
AcDbBlockReference
  2
SILCA_BUTTON
 10
2.11932630238825
 20
8.88533216608293
 30
0.0
  0
MTEXT
  5
1CF
330
1F
100
AcDbEntity
  8
1
 62
     7
100
AcDbMText
 10
0.9454602981331
 20
-1.82568146939452
 30
0.0
 40
0.05905511811024
 41
0.0
 71
     7
 72
     1
  1
ASSY_SILCA_CHUCK_RND\PSCALE 2:1
  7
CONVERTER_1
 73
     1
 44
1.32052821128451
  0
ENDSEC
  0
SECTION
  2
OBJECTS
  0
DICTIONARY
  5
C
330
0
100
AcDbDictionary
281
     1
  3
ACAD_GROUP
350
D
  3
ACAD_LAYOUT
350
1A
  3
ACAD_MLINESTYLE
350
17
  3
ACAD_PLOTSETTINGS
350
19
  3
ACAD_PLOTSTYLENAME
350
E
  3
ACAD_TABLESTYLE
350
2A
  3
AcDbVariableDictionary
350
2C
  0
DICTIONARY
  5
D
102
{ACAD_REACTORS
330
C
102
}
330
C
100
AcDbDictionary
281
     1
  0
DICTIONARY
  5
1A
102
{ACAD_REACTORS
330
C
102
}
330
C
100
AcDbDictionary
281
     1
  3
Layout1
350
1E
  3
Layout2
350
26
  3
Model
350
22
  0
DICTIONARY
  5
17
102
{ACAD_REACTORS
330
C
102
}
330
C
100
AcDbDictionary
281
     1
  3
Standard
350
18
  0
DICTIONARY
  5
19
102
{ACAD_REACTORS
330
C
102
}
330
C
100
AcDbDictionary
281
     1
  0
ACDBDICTIONARYWDFLT
  5
E
102
{ACAD_REACTORS
330
C
102
}
330
C
100
AcDbDictionary
281
     1
  3
Normal
350
F
100
AcDbDictionaryWithDefault
340
F
  0
DICTIONARY
  5
2A
102
{ACAD_REACTORS
330
C
102
}
330
C
100
AcDbDictionary
281
     1
  3
Standard
350
2B
  0
DICTIONARY
  5
2C
102
{ACAD_REACTORS
330
C
102
}
330
C
100
AcDbDictionary
281
     1
  3
CTABLESTYLE
350
2D
  0
LAYOUT
  5
1E
102
{ACAD_REACTORS
330
1A
102
}
330
1A
100
AcDbPlotSettings
  1

  2

  4

  6

 40
0.0
 41
0.0
 42
0.0
 43
0.0
 44
0.0
 45
0.0
 46
0.0
 47
0.0
 48
0.0
 49
0.0
140
0.0
141
0.0
142
1.0
143
1.0
 70
   688
 72
     0
 73
     0
 74
     5
  7

 75
    16
147
1.0
148
0.0
149
0.0
100
AcDbLayout
  1
Layout1
 70
     1
 71
     1
 10
0.0
 20
0.0
 11
12.0
 21
9.0
 12
0.0
 22
0.0
 32
0.0
 14
1.00000000000000E+20
 24
1.00000000000000E+20
 34
1.00000000000000E+20
 15
-1.00000000000000E+20
 25
-1.00000000000000E+20
 35
-1.00000000000000E+20
146
0.0
 13
0.0
 23
0.0
 33
0.0
 16
1.0
 26
0.0
 36
0.0
 17
0.0
 27
1.0
 37
0.0
 76
     0
330
1B
  0
LAYOUT
  5
26
102
{ACAD_REACTORS
330
1A
102
}
330
1A
100
AcDbPlotSettings
  1

  2

  4

  6

 40
0.0
 41
0.0
 42
0.0
 43
0.0
 44
0.0
 45
0.0
 46
0.0
 47
0.0
 48
0.0
 49
0.0
140
0.0
141
0.0
142
1.0
143
1.0
 70
   688
 72
     0
 73
     0
 74
     5
  7

 75
    16
147
1.0
148
0.0
149
0.0
100
AcDbLayout
  1
Layout2
 70
     1
 71
     2
 10
0.0
 20
0.0
 11
0.0
 21
0.0
 12
0.0
 22
0.0
 32
0.0
 14
0.0
 24
0.0
 34
0.0
 15
0.0
 25
0.0
 35
0.0
146
0.0
 13
0.0
 23
0.0
 33
0.0
 16
1.0
 26
0.0
 36
0.0
 17
0.0
 27
1.0
 37
0.0
 76
     0
330
23
  0
LAYOUT
  5
22
102
{ACAD_REACTORS
330
1A
102
}
330
1A
100
AcDbPlotSettings
  1

  2

  4

  6

 40
0.0
 41
0.0
 42
0.0
 43
0.0
 44
0.0
 45
0.0
 46
0.0
 47
0.0
 48
0.0
 49
0.0
140
0.0
141
0.0
142
1.0
143
1.0
 70
  1712
 72
     0
 73
     0
 74
     0
  7

 75
     0
147
1.0
148
0.0
149
0.0
100
AcDbLayout
  1
Model
 70
     1
 71
     0
 10
0.0
 20
0.0
 11
0.0
 21
0.0
 12
0.0
 22
0.0
 32
0.0
 14
-2.76408140063167
 24
-2.29330052816531
 34
0.0
 15
2.73591859936833
 25
1.95669947183469
 35
0.0
146
0.0
 13
0.0
 23
0.0
 33
0.0
 16
1.0
 26
0.0
 36
0.0
 17
0.0
 27
1.0
 37
0.0
 76
     0
330
1F
  0
MLINESTYLE
  5
18
102
{ACAD_REACTORS
330
17
102
}
330
17
100
AcDbMlineStyle
  2
Standard
 70
     0
  3

 62
   256
 51
90.0
 52
90.0
 71
     2
 49
0.5
 62
   256
  6
BYLAYER
 49
-0.5
 62
   256
  6
BYLAYER
  0
ACDBPLACEHOLDER
  5
F
102
{ACAD_REACTORS
330
E
102
}
330
E
  0
TABLESTYLE
  5
2B
102
{ACAD_REACTORS
330
2A
102
}
330
2A
100
AcDbTableStyle
  3
Standard
 70
     0
 71
     0
 40
0.06
 41
0.06
280
     0
281
     0
  7
Standard
140
0.18
170
     2
 62
     0
 63
     7
283
     0
274
    -2
284
     1
 64
     0
275
    -2
285
     1
 65
     0
276
    -2
286
     1
 66
     0
277
    -2
287
     1
 67
     0
278
    -2
288
     1
 68
     0
279
    -2
289
     1
 69
     0
  7
Standard
140
0.25
170
     5
 62
     0
 63
     7
283
     0
274
    -2
284
     1
 64
     0
275
    -2
285
     1
 65
     0
276
    -2
286
     1
 66
     0
277
    -2
287
     1
 67
     0
278
    -2
288
     1
 68
     0
279
    -2
289
     1
 69
     0
  7
Standard
140
0.18
170
     5
 62
     0
 63
     7
283
     0
274
    -2
284
     1
 64
     0
275
    -2
285
     1
 65
     0
276
    -2
286
     1
 66
     0
277
    -2
287
     1
 67
     0
278
    -2
288
     1
 68
     0
279
    -2
289
     1
 69
     0
  0
DICTIONARYVAR
  5
2D
102
{ACAD_REACTORS
330
2C
102
}
330
2C
100
DictionaryVariables
280
     0
  1
Standard
  0
ENDSEC
  0
EOF
